Home » F » Forever The Sickest Kids »

Forever The Sickest Kids - Breakdown Tabs

Artists:  A B C D E F G H I J K L M N O P Q R S T U V W X Y Z # 

Breakdown Tabs

(ver. 1) Click to play this song!
Forever The Sickest Kids
 Rating:
4/5 (4 votes)
                -------------------------------------------------------------------------------
                             Breakdown-Forever The Sickest Kids
-------------------------------------------------------------------------------

Tuning:Drop D
Cant get the acoustic but from here it goes
e
B|--------------------------------------------------------------------------|
G|--------------------------------------------------------------------------|
D|-6666--10101010--88888888-------------------------------------------------|
A|-6666--10101010--88888888----(x2)-----------------------------------------|
d|-6666--10101010--88888888-------------------------------------------------|
   ****  * * * *  ********
(and i would rather believe)

   (Chorus) ...you might as well leave
e|--------------------------------------------------------------------------|
B|--------------------------------------------------------------------------|
G|--------------------------------------------------------------------------|
D|-6666--10--8888888---------666---101010---8--888888-----------------------|
A|-6666--10--8888888--(x2)---666---101010---8--888888--(x2)-----------------|
d|-6666--10--8888888---------666---101010---8--888888-----------------------|
      ...cause its the breakdown
e|--------------------------------------------------------------------------|
B|--------------------------------------------------------------------------|
G|--------------------------------------------------------------------------|
D--6-------10---------8-----8-----------------------xxxx--------------------|
A|-6-------10---------8-----8--(x2)---88888888-8----xxxx--------------------|
d|-6-------10---------8-----8---------88888888-8----xxxx--------------------|
                                      ********
e|---------------------------------------------------------------------------|
B|---------------------------------------------------------------------------|
G|---------------------------------------------------------------------------|
D|-66666-6666-6/10--88888-88888-8/10---------6----10----8--------------------|
A|-66666-6666-6/10--88888-88888-8/10---------6----10----8--------------------|
d|-66666-6666-6/10--88888-88888-8/10-(x2)----6----10----8--------------------|

e|--------------------------------------------------------------------------|
B|--------------------------------------------------------------------------|
G|--------------------------------------------------------------------------|
D|-6666/10101010/8888/10101010------6------xxxx-----------------------------|
A|-6666/10101010/8888/10101010------6------xxxx-----------------------------|
d|-6666/10101010/8888/10101010-(x2)-6------xxxx-----------------------------|
   **** ******** **** ********
     .....you might as well leave
e|--------------------------------------------------------------------------|
B|--------------------------------------------------------------------------|
G|--------------------------------------------------------------------------|
D|-66666-10-888888888-----------666---101010-----8-8888888------------------|
A|-66666-10-888888888---(x2)----666---101010-----8-8888888--(x2)------------|
d|-66666-10-888888888-----------666---101010-----8-8888888------------------|

e|--------------------------------------------------------------------------|
B|--------------------------------------------------------------------------|
G|--------------------------------------------------------------------------|
D|-66666666-1010101010101010-88888888-8888-88-88-8888-----------------------|
A|-66666666-1010101010101010-88888888-8888-88-88-8888---(x2)----------------|
d|-66666666-1010101010101010-88888888-8888-88-88-8888-----------------------|
                                      **** ** ** ****
e|--------------------------------------------------------------------------|
B|--------------------------------------------------------------------------|
G|--------------------------------------------------------------------------|
D|-10-------13--------------------------------------------------------------|
A|-10-------13--------------------------------------------------------------|
d|-10-------13--------------------------------------------------------------|

         well it should be easy to figure it out from here if you have any thing to say 

  *  palm mute
| /  slide up
| \  slide down
| h  hammer-on
| p  pull-off
| ~  vibrato
| +  harmonic
| x  Mute note
===============================================================================
            
Submit corrections

↑ Back to top | Tablatures and chords for acoustic guitar and electric guitar, ukulele, drums are parodies/interpretations of the original songs. You may use it for private study, scholarship, research or language learning purposes only