» » »

Fools Garden - Lemon Tree Tabs

Artists:  A B C D E F G H I J K L M N O P Q R S T U V W X Y Z # 

Lemon Tree Tabs

(ver. 1) Click to play this song!
Fools Garden
 Rating:
4.3/5 (29 votes)

 Lemon Tree lessons Tabs too difficult? Try these video lessons and learn fast
 
                [Intro]

    Em        Bm        Em        Bm         Am        Bm        Em
e|----7----7----7----7----7----7----7----------5----5----7----7----7------------|
B|----8----8----7----7----8----8----7----------5----5----7----7----8------------|
G|----9----9----7----7----9----9----7----------5----5----7----7----9------------|
D|----9----9----9----9----9----9----9----------7----7----9----9----9------------|
A|--7----7------9----9--7----7------9----------7----7----9----9--7-----------7\-|
E|------------7----7--------------7----7--6--5----5----7----7---------7--10-----|


[Verse 1]

    Em        Bm        Em        Bm        Em        Bm        Em        Bm
e|----7----7----7----7----7----7----7----7----7----7----7----7----7----7----7--|
B|----8----8----7----7----8----8----7----7----8----8----7----7----8----8----7--|
G|----9----9----7----7----9----9----7----7----9----9----7----7----9----9----7--|
D|----9----9----9----9----9----9----9----9----9----9----9----9----9----9----9--|
A|--7----7------9----9--7----7------9----9--7----7------9----9--7----7------9--|
E|------------7----7--------------7----7--------------7----7--------------7----|

          Am        Bm        Em
e|----------5----5----7----7----7----------------||
B|----------5----5----7----7----8----------------||
G|----------5----5----7----7----9-----------?--|| repeat
D|----------7----7----9----9----9-----------?--||
A|----------7----7----9----9--7-----------7\-----||
E|--7--6--5----5----7----7---------7--10---------||


[Chorus 1]
Strum DOWN? DOWN? UP?  UP? DOWN? UP? for chords

    G              D
e|--3--------------2---------|
B|--3--------------3---------|
G|--0--------------2---------|
D|--0--------------0---------|
A|--2------------------------|
E|--3------------------------|
    I wonder how I wonder why

    Em                              Bm
e|--0-------------------------------2------------|
B|--0-------------------------------3------------|
G|--0-------------------------------4------------|
D|--2-------------------------------4------------|
A|--2-------------------------------2------------|
E|--0--------------------------------------------|
    Yesterday you told me 'bout the blue blue sky

   C                  D                    G          [D]
e|--0-----------------2--------------------3-----------2-------|
B|--1-----------------3--------------------3-----------3-------|
G|--0-----------------2--------------------0-----------2-------|
D|--2-----------------0--------------------0-----------0-------|
A|--3--------------------------------------2-------------3-2-0-|
E|--3--------------------------------------3-------------------|
   And all that I can see is just a yellow lemon-tree

    G              D
e|--3--------------2---------|
B|--3--------------3---------|
G|--0--------------2---------|
D|--0--------------0---------|
A|--2------------------------|
E|--3------------------------|
    I'm turning my head up and down

    Em                              Bm
e|--0-------------------------------2------------|
B|--0-------------------------------3------------|
G|--0-------------------------------4------------|
D|--2-------------------------------4------------|
A|--2-------------------------------2------------|
E|--0--------------------------------------------|
    I'm turning turning turning turning turning around

    C                  A                    D
e|--0------------------0--------------------2----------|
B|--1------------------2--------------------3----------|
G|--0------------------2--------------------2----------|
D|--2------------------2--------------------0----------|
A|--3------------------0-------------------------------|
E|--3--------------------------------------------------|
    And all that I can see is just a yellow lemon-tree


[Bridge 1]

    Em        Bm        Em        Bm         Am        Bm        Em
e|----7----7----7----7----7----7----7----------5----5----7----7----7---------------|
B|----8----8----7----7----8----8----7----------5----5----7----7----8---------------|
G|----9----9----7----7----9----9----7----------5----5----7----7----9-----------12\-|
D|----9----9----9----9----9----9----9----------7----7----9----9----9-----------12\-|
A|--7----7------9----9--7----7------9----------7----7----9----9--7-----------7-----|
E|------------7----7--------------7----7--6--5----5----7----7---------7--10--------|


[Verse 2]

    Em        Bm        Em        Bm        Em        Bm        Em        Bm
e|----7----7----7----7----7----7----7----7----7----7----7----7----7----7----7--|
B|----8----8----7----7----8----8----7----7----8----8----7----7----8----8----7--|
G|----9----9----7----7----9----9----7----7----9----9----7----7----9----9----7--|
D|----9----9----9----9----9----9----9----9----9----9----9----9----9----9----9--|
A|--7----7------9----9--7----7------9----9--7----7------9----9--7----7------9--|
E|------------7----7--------------7----7--------------7----7--------------7----|

          Am        Bm        Em
e|----------5----5----7----7----7------------|
B|----------5----5----7----7----8------------|
G|----------5----5----7----7----9------------|
D|----------7----7----9----9----9------------|
A|----------7----7----9----9--7-----------7\-|
E|--7--6--5----5----7----7---------7--10-----|


[Bridge 2]
Strum DOWN?  DOWN?  DOWN? UP? DOWN? UP? for chords

                     B7         Em
e|-------------------2----------0-------------------|
B|-------------------0----------0-------------------|
G|-------------------2----------0-------------------|
D|-------------------1----------2-------------------|
A|--2---1-5-3-0-1-2--2----------2-------------------|
E|----0-------------------------0-------------------|
                     Isolation - is not good for me

                     D          G             B        ? ? ?
e|-------------------2----------3-------------x-7-x-7--7-7-7-----------------|
B|-------------------3----------3-------------x-7-x-7--7-7-7-----------------|
G|-------------------2----------0-------------x-8-x-8--8-8-8-----------------|
D|-------------------0----------0-------------x-9-x-9--9-9-9-----------------|
A|--2---1-5-3-0-1-2-------------2-------------x-9-x-9--9-9-9-----------------|
E|----0-------------------------3-------------x-7-x-7--7-7-7-----------------|
                     Isolation - I don't want to sit on a lemon-tree


[Verse 3]

    Em        Bm        Em        Bm         Am        Bm        Em          Em7
e|----7----7----7----7----7----7----7----------5----5----7----7----7---------0-0-0-0-|
B|----8----8----7----7----8----8----7----------5----5----7----7----8---------0-0-0-0-|
G|----9----9----7----7----9----9----7----------5----5----7----7----9---------0-0-0-0-|
D|----9----9----9----9----9----9----9----------7----7----9----9----9---------0-0-0-0-|
A|--7----7------9----9--7----7------9--9-------7----7----9----9--7-----------2-2-2-2-|
E|------------7----7--------------7----7--6--5----5----7----7---------7--10--0-0-0-0-|


[Chorus 2]
Strum DOWN? DOWN? UP?  UP? DOWN? UP? for chords

    G              D
e|--3--------------2---------|
B|--3--------------3---------|
G|--0--------------2---------|
D|--0--------------0---------|
A|--2------------------------|
E|--3------------------------|
    I wonder how I wonder why

    Em                              Bm
e|--0-------------------------------2------------|
B|--0-------------------------------3------------|
G|--0-------------------------------4------------|
D|--2-------------------------------4------------|
A|--2-------------------------------2------------|
E|--0--------------------------------------------|
    Yesterday you told me 'bout the blue blue sky

   C                  D                    G          [D]
e|--0-----------------2--------------------3-----------2-------|
B|--1-----------------3--------------------3-----------3-------|
G|--0-----------------2--------------------0-----------2-------|
D|--2-----------------0--------------------0-----------0-------|
A|--3--------------------------------------2-------------3-2-0-|
E|--3--------------------------------------3-------------------|
   And all that I can see is just a yellow lemon-tree

    G              D
e|--3--------------2---------|
B|--3--------------3---------|
G|--0--------------2---------|
D|--0--------------0---------|
A|--2------------------------|
E|--3------------------------|
    I'm turning my head up and down

    Em                              Bm
e|--0-------------------------------2------------|
B|--0-------------------------------3------------|
G|--0-------------------------------4------------|
D|--2-------------------------------4------------|
A|--2-------------------------------2------------|
E|--0--------------------------------------------|
    I'm turning turning turning turning turning around

    C                  A                    D          [D]
e|--0------------------0--------------------2-----------2-------|
B|--1------------------2--------------------3-----------3-------|
G|--0------------------2--------------------2-----------2-------|
D|--2------------------2--------------------0-----------0-------|
A|--3------------------0----------------------------------3-2-0-|
E|--3-----------------------------------------------------------|
    And all that I can see is just a yellow lemon-tree  and I wonder, I wonder

G              D
I wonder how I wonder why
 Em                              Bm
Yesterday you told me 'bout the blue blue sky
 C                  D
And all that I can see
 C                  D
And all that I can see
  C                  D
And all that I can see
                   G
Is just a yellow lemon-tree.            
Submit corrections


        Lemon Tree lessons Hard to play? Try these video lessons and learn fast Lemon Tree lessons
        
↑ Back to top | Tablatures and chords for acoustic guitar and electric guitar, ukulele, drums are parodies/interpretations of the original songs. You may use it for private study, scholarship, research or language learning purposes only