» » »

Fonseca - Sabre Olvidar Tabs

Artists:  A B C D E F G H I J K L M N O P Q R S T U V W X Y Z # 

Sabre Olvidar Tabs

(ver. 1) Click to play this song!
Fonseca
 Rating:
1.9/5 (29 votes)

 Sabre Olvidar  lessons Tabs too difficult? Try these video lessons and learn fast
 
                Tuning: Standard - E A D G B E

INTRO

e|---------------|
B|---------------|
G|---------------|
D|--5-5-5--x--x--| X4
A|--5-5-5--x--x--|
E|--3-3-3--x--6--|
    ? ? ?  ?  ?
           x

VERSE
e|------------------------------------------------------------|
B|------------------------------------------------------------|
G|------------------------------------------------------------|
D|--5-5-5--x--x----5-5-5--x--x----8-8-8--x--x----8-8-8--x--x--| X2
A|--5-5-5--x--x----5-5-5--x--x----8-8-8--x--x----8-8-8--x--x--|
E|--3-3-3--x--6----3-3-3--x--6----6-6-6--x--8----6-6-6--x--8--|
    ? ? ?  ?  ?    ? ? ?  ?  ?    ? ? ?  ?  ?    ? ? ?  ?  ?  
           x              x              x              x


PRE-CHORUS

e|----------------------------------------------------|
B|----------------------------------------------------|
G|--5-5--x--5-----------------3-3--x--3---------------|
D|--5-5--x--5----3-3--x--3----3-3--x--3----5-5--x--3--|
A|--3-3--x--3----3-3--x--3----1-1--x--1----5-5--x--5--|
E|---------------1-1--x--1-----------------3-3--x--5--|
    ? ?  ?  ?    ? ?  ?  ?    ? ?  ?  ?    ? ?  ?  ?  
         x            x            x            x

e|----------------------------------------------------|
B|----------------------------------------------------|
G|-5-5--x--5-5-5--5-5--5----7-7--x--7-7-7--7-7--7-----|
D|-5-5--x--5-5-5--5-5--5----7-7--x--7-7-7--7-7--7-----|
A|-3-3--x--3-3-3--3-3--3----5-5--x--5-5-5--5-5--5-----|
E|----------------------------------------------------|
   ? ?  ?  ? ? ?  ? ?  ?    ? ?  ?  ? ? ?  ? ?  ?  
        x                        x

CHORUS

e|----------------------------------------------------|
B|----------------------------------------------------|
G|----------------------------3-3--x--3---------------|
D|--5-5--x--5-----------------3-3--x--3----3-3--x--3--| X5
A|--5-5--x--5----3-3--x--3----1-1--x--1----3-3--x--3--|
E|--3-3--x--3----1-1--x--1-----------------1-1--x--1--|
    ? ?  ?  ?    ? ?  ?  ?    ? ?  ?  ?    ? ?  ?  ?
         x            x            x            x

e|----------------------------------------------------|
B|----------------------------------------------------|
G|---------------------------3-3--x--3----------------|
D|-5-5--x--5-----------------3-3--x--3----3-3--x------|
A|-5-5--x--5----3-3--x--3----1-1--x--1----3-3--x------|
E|-3-3--x--3----1-1--x--1-----------------1-1--x------|
   ? ?  ?  ?    ? ?  ?  ?    ? ?  ?  ?    ? ?  ?  
        x            x            x            x

BRIDGE

e|----------------------------------------------------|
B|----------------------------------------------------|
G|----------------------------3-3--x--3---------------|
D|--5-5--x--5-----------------3-3--x--3----3-3--x--3--| X6
A|--5-5--x--5----3-3--x--3----1-1--x--1----3-3--x--3--|
E|--3-3--x--3----1-1--x--1-----------------1-1--x--1--|
    ? ?  ?  ?    ? ?  ?  ?    ? ?  ?  ?    ? ?  ?  ?

OUTRO          

e|------------|
B|------------|
G|------------|
D|--5-5-5--x--|
A|--5-5-5--x--|
E|--3-3-3--x--|
    ? ? ?  ?  
           x

*BASS LINES*          

e|--------------|      e|-------------------| 
B|--------------|      B|-------------------| 
G|--------------|      G|-------------------| 
D|--------------|      D|--0--------0-------| 
A|--------------|      A|-------------------| 
E|--3--6-5-6--3-|      E|-----8-6-8---6-3---|             
Submit corrections


        Sabre Olvidar  lessons Hard to play? Try these video lessons and learn fast Sabre Olvidar  lessons
        
↑ Back to top | Tablatures and chords for acoustic guitar and electric guitar, ukulele, drums are parodies/interpretations of the original songs. You may use it for private study, scholarship, research or language learning purposes only