» » »

Foghat - Slow Ride Tabs

Artists:  A B C D E F G H I J K L M N O P Q R S T U V W X Y Z # 

Slow Ride Tabs

(ver. 3) Click to play this song!
Foghat
 Rating:
2/5 (26 votes)

 Slow Ride lessons Tabs too difficult? Try these video lessons and learn fast
 
                SOLO

E|-5s3s5~--------------------------5s3s5~~------------------------|
B|--------5s3s5~--------5------------------5s3s5~--------5--------|
G|---------------6s4s6~----6b---------------------6s4s6~----6b----|
D|-----------------------------7~~------------------------------7-|
A|----------------------------------------------------------------|
E|----------------------------------------------------------------|


E|----------------5----------------------------10--8--10b--8-----|
B|------------------------------------------10----------------10-|
G|----6--7--8--9~---7br-6b--------6-7-8-9~-----------------------|
D|-7-----------------------7~---7--------------------------------|
A|---------------------------------------------------------------|
E|---------------------------------------------------------------|



            
Submit corrections


        Slow Ride lessons Hard to play? Try these video lessons and learn fast Slow Ride lessons
        
↑ Back to top | Tablatures and chords for acoustic guitar and electric guitar, ukulele, drums are parodies/interpretations of the original songs. You may use it for private study, scholarship, research or language learning purposes only