Home » F » Fm Static »

Fm Static - Hold Me Twice Tabs

Artists:  A B C D E F G H I J K L M N O P Q R S T U V W X Y Z # 

Hold Me Twice Tabs

(ver. 2) Click to play this song!
Fm Static
Intro/Verse
E|-7~----6~----7~----6~----------------------------------------------------|
B|-------------------------------------------------------------------------|
G|-------------------------------------------------------------------------|
D|-------------------------------------------------------------------------|
A|-------------------------------------------------------------------------|
E|-7~----6~----7~----6~------------------------------(x3)------------------|

Pre chorus 
E|-------------------------------------------------------------------------|
B|-------------------------------------------------------------------------|
G|-------------------------------------------------------------------------|
D|-9-9-4-4-2-2-4-4---------------------------------------------------------|
A|-9-9-4-4-2-2-4-4-----------------------------------(X2)------------------|
E|-7-7-2-2-0-0-2-2---------------------------------------------------------|

Chorus
E|-------------------------------------------------------------------------|
B|-------------------------------------------------------------------------|
G|-------------------------------------------------------------------------|
D|-9999-4444-2222-4444-----------------------------------------------------|
A|-9999-4444-2222-4444------------------------------(X2)-------------------|
E|-7777-2222-0000-2222-----------------------------------------------------|

Verse
E|-7~----6~----7~----6~----------------------------------------------------|
B|-------------------------------------------------------------------------|
G|-------------------------------------------------------------------------|
D|-------------------------------------------------------------------------|
A|-------------------------------------------------------------------------|
E|-7~----6~----7~----6~------------------------------(x3)------------------|

Pre chorus 
E|-------------------------------------------------------------------------|
B|-------------------------------------------------------------------------|
G|-------------------------------------------------------------------------|
D|-9-9-4-4-2-2-4-4---------------------------------------------------------|
A|-9-9-4-4-2-2-4-4-----------------------------------(X2)------------------|
E|-7-7-2-2-0-0-2-2---------------------------------------------------------|

Chorus
E|-------------------------------------------------------------------------|
B|-------------------------------------------------------------------------|
G|-------------------------------------------------------------------------|
D|-9999-4444-2222-4444-----------------------------------------------------|
A|-9999-4444-2222-4444------------------------------(X2)-------------------|
E|-7777-2222-0000-2222-----------------------------------------------------|

Solo Bridge
E|-------------------------------------------------------------------------|
B|-------------------------------------------------------------------------|
G|-14-14\16-16/11-11-14\16-16/11-11-14-11-9-7-6----------------------------|
D|-------------------------------------------------------------------------|
A|-------------------------------------------------------------------------|
D|-------------------------------------------------------------------------|


Pre Outro (Acoustic) 
E|-------------------------------------------------------------------------|
B|-------------------------------------------------------------------------|
G|-------------------------------------------------------------------------|
D|-9-9-4-4-2-2-4-4---------------------------------------------------------|
A|-9-9-4-4-2-2-4-4-----------------------------------(X2)------------------|
E|-7-7-2-2-0-0-2-2---------------------------------------------------------|

Outro
E|-------------------------------------------------------------------------|
B|-------------------------------------------------------------------------|
G|-------------------------------------------------------------------------|
D|-99999999-44444444-22222222-44444444-------------------------------------|
A|-99999999-44444444-22222222-44444444-------------(X2)--------------------|
E|-77777777-22222222-00000000-22222222-------------------------------------|

E|-------------------------------------------------------------------------|
B|-------------------------------------------------------------------------|
G|-------------------------------------------------------------------------|
D|-99999999----------------------------------------------------------------|
A|-99999999----------------------------------------(X2)--------------------|
E|-77777777----------------------------------------------------------------|

Hope You Enjoy
            
Submit corrections

↑ Back to top | Tablatures and chords for acoustic guitar and electric guitar, ukulele, drums are parodies/interpretations of the original songs. You may use it for private study, scholarship, research or language learning purposes only