Home » F » F Minus »

F Minus - Zeroed Out Tabs

Artists:  A B C D E F G H I J K L M N O P Q R S T U V W X Y Z # 

Zeroed Out Tabs

(ver. 1) Click to play this song!
F Minus
verse 
e|---------------------------------------------------------------------------| 
B|---------------------------------------------------------------------------| 
G|-5-7-------------------------------------------------------------------------| 
D|-5-7-7----5x--------------------------------------------------------------------| 
A|-3-5-7----5x--------------------------------------------------------------------| 
E|-----5-x3-3x-x8--------------------------------------------------------------------| 

chorus 
e|---------------------------------------------------------------------------| 
B|---------------------------------------------------------------------------| 
G|-------5-5-5------------------------------------------------------------------| 
D|-3-3-3-5-5-5-7-7-7--7-7-7--------------------------------------------------------------| 
A|-3-3-3-3-3-3-7-7-7--7-7-7--------------------------------------------------------------| 
E|-1-1-1-------5-5-5--5-5-5-----------------------------------------------------------| 

5x 
5x 
3x = palm mute
            
Submit corrections

↑ Back to top | Tablatures and chords for acoustic guitar and electric guitar, ukulele, drums are parodies/interpretations of the original songs. You may use it for private study, scholarship, research or language learning purposes only