Home » F » F Minus »

F Minus - Digging Up The Dirt Tabs

Artists:  A B C D E F G H I J K L M N O P Q R S T U V W X Y Z # 

Digging Up The Dirt Tabs

(ver. 1) Click to play this song!
F Minus
Intro:
e----------------------------------------|    |-----------------|
B--3----------------3--------------------|    |---3-------------|
G--2-2---2----------2-2---2------2-------|    |---2-2---2-------|
D--0-2---2--2-2-----0-2---2--2-2-2--2-2--|    |-2-0-2---2--2-2--|
A----0---0--2-2-------0---0--2-2-0--2-2--|    |-2---0---0--2-2--|
E-----------0-0--------------0-0----0-0--| X2 |-0----------0-0--|


e-------------------------------------------------------------|
B--3----------------------3-------------------3---------------|
G--2-2---2------2---------2-2---2-------------2-2---2------2--|
D--0-2---2--2-2-2--2-2----0-2---2--2-2--------0-2---2----2-2--|
A----0---0--2-2-0--2-2------0---0--2-2----------0---0--2-2-0--|
E-----------0-0----0-0-------------0-0-----------------0-0----|

Verse:
e-----------------|   |--------|  |------------------|   |----------|
B---0-------------|   |--------|  |----0-------------|   |----------|
G---0-2---2-------|   |--------|  |----0-2---2-------|   |----------|
D---0-2---2--2-2--|   |--0h2v--|  |----0-2---2--2-2--|   |--0h2/5v--|
A-----0---0--2-2--|   |--------|  |------0---0--2-2--|   |----------|
E------------0-0--|X2 |--------|  |-------------0-0--|X2 |----------|

Pre Chorus:
e---------------------------------------------------------------|
B---------------------------------------------------3-----------|
G--5-5-5-5-5-5-5-5-5-5-5-5-5-5-----2-2-2-2-2-2-2-2--2--2-----2--|
D--5-5-5-5-5-5-5-5-5-5-5-5-5-5--2--2-2-2-2-2-2-2-2--0--2--5--2--|
A--3-3-3-3-3-3-3-3-3-3-3-3-3-3--2--0-0-0-0-0-0-0-0-----0--5--0--|
E-------------------------------0-------------------------3-----|
  |         14 Notes         |

Chorus:
e----------------------------------------|
B--3----------------3--------------------|
G--2-2---2----------2-2---2------2-------|
D--0-2---2--2-2-----0-2---2--2-2-2--2-2--|
A----0---0--2-2-------0---0--2-2-0--2-2--|
E-----------0-0--------------0-0----0-0--| X2

e--------------------------------------|
B--------------------------------------|
G--5--5--5---5--5--5-------------2-----|
D--5--5--5---5--5--5---5--5--5---2--5--|
A--3--3--3---3--3--3---5--5--5---0--5--|
E----------------------3--3--3------3--|

e----------------------------------------|
B--3----------------3--------------------|
G--2-2---2----------2-2---2------2-------|
D--0-2---2--2-2-----0-2---2--2-2-2--2-2--|
A----0---0--2-2-------0---0--2-2-0--2-2--|
E-----------0-0--------------0-0----0-0--| X2

Verse

Pre Chorus

Chorus
e----------------------------------------|
B--3----------------3--------------------|
G--2-2---2----------2-2---2------2-------|
D--0-2---2--2-2-----0-2---2--2-2-2--2-2--|
A----0---0--2-2-------0---0--2-2-0--2-2--|
E-----------0-0--------------0-0----0-0--| X4

e--------------------------------------|
B--------------------------------------|
G--5--5--5---5--5--5-------------2-----|
D--5--5--5---5--5--5---5--5--5---2--5--|
A--3--3--3---3--3--3---5--5--5---0--5--|
E----------------------3--3--3------3--|

e----------------------------------------|
B--3----------------3--------------------|
G--2-2---2----------2-2---2------2-------|
D--0-2---2--2-2-----0-2---2--2-2-2--2-2--|
A----0---0--2-2-------0---0--2-2-0--2-2--|
E-----------0-0--------------0-0----0-0--|

Bridge
e----------------------------------------------------|
B----------------------------------------3-----------|
G--4-------4-------2------2-4--------4---2--2-----2--|
D--4-------4-------2----6-2-4--------4---0--2--5--2--|
A--2-------2-------0----6-0-2--------2------0--5--0--|
E-----------------------4----------------------3-----|

Chorus
e----------------------------------------|
B--3----------------3--------------------|
G--2-2---2----------2-2---2------2-------|
D--0-2---2--2-2-----0-2---2--2-2-2--2-2--|
A----0---0--2-2-------0---0--2-2-0--2-2--|
E-----------0-0--------------0-0----0-0--| X2

Solo
e------------------------------------------12b14===14r12-------|
B--10b12r10p7-9b10==10rp7---7-----------------------------12v--|
G-------------------------9---9p7-9p7--------------------------|
D--------------------------------------9-----------------------|
A--------------------------------------------------------------|
E--------------------------------------------------------------|

e--------------------------------------|----------------------------------|
B--10b12--7-7--------------------------|-------/19-17-15-17-15------------|
G-------------9p7-9b11r9p7---7---------|--/16v-----------------16\14/16v--|
D--------------------------9---9p7-9v--|----------------------------------|
A--------------------------------------|----------------------------------|
E--------------------------------------|----------------------------------|
                                       |Here he uses one of those slider things

e--------17-------------------------------------------------------------------|
B--17b19----17b19r17p15-17-15--------8h10p8----8------------------------------|
G------------------------------14v-----------9---9p7---7----------------------|
D----------------------------------------------------9---9p7-5h7p5-4h5p4------|
A-------------------------------------------------------------------------7v--|
E-----------------------------------------------------------------------------|

Pre Chorus

Interlude

After Interlude:
e----------------|
B----------------|
G------2--2-4-5--|
D--2-5-2--2-4-5--|
A--2-5-0--0-2-3--|
E--0-3-----------|

Chorus till the end
            
Submit corrections

↑ Back to top | Tablatures and chords for acoustic guitar and electric guitar, ukulele, drums are parodies/interpretations of the original songs. You may use it for private study, scholarship, research or language learning purposes only