» » »

Flyleaf - Fully Alive Tabs

Artists:  A B C D E F G H I J K L M N O P Q R S T U V W X Y Z # 

Fully Alive Tabs

(ver. 3) Click to play this song!
Flyleaf
 Rating:
4/5 (4 votes)

 Fully Alive lessons Tabs too difficult? Try these video lessons and learn fast
 
                
Drop D Tuning (D A D G B E)


Intro

e|---------------------------|
B|---------------------------|
G|---------------------------|
D|---------------------------| x2
A|---------------------------|
E|--3--0--3--5--8--5--8--10--|

e|----------------------------------------------|
B|----------------------------------------------|
G|----------------------------------------------|
D|----------------------------------------------|
A|----------------------------------------------| 
E|--3--0--3--5--8--5--8-/10----8--5--8----5--0--|

e|----------------------------------------------|
B|----------------------------------------------|
G|----------------------------------------------|
D|--3--0--3--5--8--5--8--10----8--5--8----5--0--|
A|--3--0--3--5--8--5--8--10----8--5--8----5--0--| x2
E|--3--0--3--5--8--5--8--10----8--5--8----5--0--|


Verse 1

e|------------------------------------------------------------------------|
B|------------------------------------------------------------------------|
G|------------------------------------------------------------------------|
D|--3--0-------5--0-------------------------------------------------------|
A|--3--0-------5--0------3--0--3--5--8--5--8--10--3--0--3--5--8--5--8--10-| 
D|--3--0-------5--0------3--0--3--5--8--5--8--10--3--0--3--5--8—-5--8--10-|
                      p.m................................................


Pre-Chorus (sounds like a big mess; this is the best I could come up with)

e|-------------------------------------------------------------------------|
B|-------------------------------------------------------------------------|
G|-7--7--7--7--7--7--7--7--7--7--5/10--10--10--5--5/7--7--7--7--7--7--7--7-|
D|-7--7--7--7--7--7--7--7--7--7--5/10--10--10--5--5/7--7--7--7--7--7--7--7-|
A|-5--5--5--5--5--5--5--5--5--5--3/8---8---8---3--3/5--5--5--5--5--5--5--5-|
E|-0--0--0--0--0--0--0--0--5--5--3/8---8---8---3--3/5--5--5--5--5--5--5--5-|

e|----------------------------------------------------|
B|----------------------------------------------------|
G|--7--7--7--7--7--7--7--7--7--7--5/10--10--10--5--5--|
D|--7--7--7--7--7--7--7--7--7--7--5/10--10--10--5--5--|
A|--5--5--5--5--5--5--5--5--5--5--3/8---8---8---3--3--|
E|--0--0--0--0--0--0--0--0--5--5--3/8---8---8---3--3--|


Chorus

e|------------------------------------------------------------------|
B|------------------------------------------------------------------|
G|-7-7-7-7-7-7-7-7-7-7-7-7-7-10-10-10-------------------------------|
D|-7-7-7-7-7-7-7-7-7-7-7-7-7-10-10-10-5-5/8-8-8-8-8-8-8-8-3-3-3-0-0-|
A|-5-5-5-5-5-5-5-5-5-5-5-5-5-8--8--8--5-5/8-8-8-8-8-8-8-8-3-3-3-0-0-|
E|-0-0-0-0-0-0-0-0-0-0-0-0-0----------5-5/8-8-8-8-8-8-8-8-3-3-3-0-0-|


Verse 2

e|------------------------------------------------|
B|------------------------------------------------|
G|------------------------------------------------|
D|--3--0-------5--0-------------------------------|
A|--3--0-------5--0------3--0--3--5--8--5--8--10--| 
D|--3--0-------5--0------3--0--3--5--8--5--8--10--|


Break

e|-------------------------------------------------------------------|
B|-------------------------------------------------------------------|
G|-------------------------------------------------------------------|
D|--3--0-------5--0------3--0--3--5--8--5--8--10----8--5--8----5--0--|
A|--3--0-------5--0------3--0--3--5--8--5--8--10----8--5--8----5--0--| 
D|--3--0-------5--0------3--0--3--5--8--5--8--10----8--5--8----5--0--|

e|-------------------------------------------------------------------|
B|-------------------------------------------------------------------|
G|-------------------------------------------------------------------|
D|--3--0-------5--0--0---3--0--3--5--8--5--8--10----8--5--8----5--0--|
A|--3--0-------5--0--0---3--0--3--5--8--5--8--10----8--5--8----5--0--| 
D|--3--0-------5--0--0---3--0--3--5--8--5--8--10----8--5--8----5--0--|


e|---------------------------|
B|---------------------------|
G|---------------------------|
D|--3--0--3--5--8--5--8--10--|
A|--3--0--3--5--8--5--8--10--| x4
E|--3--0--3--5--8--5--8--10--|
            
Submit corrections


        Fully Alive lessons Hard to play? Try these video lessons and learn fast Fully Alive lessons
        
↑ Back to top | Tablatures and chords for acoustic guitar and electric guitar, ukulele, drums are parodies/interpretations of the original songs. You may use it for private study, scholarship, research or language learning purposes only