» » »

Florida Georgia Line - Round Here Tabs

Artists:  A B C D E F G H I J K L M N O P Q R S T U V W X Y Z # 

Round Here Tabs

(ver. 2) Click to play this song!
Florida Georgia Line
 Rating:
3.5/5 (24 votes)

 Round Here lessons Tabs too difficult? Try these video lessons and learn fast
 
                Tuning: Drop C#

  Intro Lead
e|-----------------------------------------2-----------------------------------------|
B|----------------------------------3---s5---5-3-----------------------------------3-|
G|-4-4-2-4-2-2---4-4-2-2--4-4-2-4-2--------------4-2-4-4-2-4-2-2--4-4-2--4-4-2-4-2---|
D|-----------------------------------------------------------------------------------|
A|-----------------------------------------------------------------------------------|
E|-----------------------------------------------------------------------------------|
  Intro Chords
e|-------2-|
B|-------3-|
G|----2--2-| x4
D|-5--2--0-|
A|-5--0--0-|
E|-5-----0-|

NO GUITAR DURING VERSE

  Chorus
e|-------2-|
B|-------3-|
G|----2--2-| x9
D|-5--2--0-|
A|-5--0--0-|
E|-5-----0-|

  Chorus Outro Lead
e|--------2--------------------------------------|
B|-3---s5---5-3----------------------------------|
G|--------------4-4-2-4-2-2---4-4-2-2--4-4-2-4-2-|
D|-----------------------------------------------|
A|-----------------------------------------------|
E|-----------------------------------------------| 

  Chorus Outro Chords
e|-------2-|
B|-------3-|
G|----2--2-| x4
D|-5--2--0-|
A|-5--0--0-|
E|-5-----0-|

Verse
Chorus

  Solo
e|---------------------------------------------------------------------------|
B|-----------------------------------------------------------------------3---|
G|---2-4--4-4-4-----------------------------------------------------2-h4---4-|
D|-4------------b3-b3-b3-b3r-2---------------------------------2-h4----------|
A|-----------------------------5-2-0-2-2br-0------------0-h2-5---------------|
E|-------------------------------------------2-0-0-h2-4----------------------|

e|----------------7-----------10-----------------10-|
B|---3-s7-10-7-10----------------8br----------10-10-|
G|-4----------------9-7---10b--------11-9-s11----11-|
D|----------------------9---------------------------|
A|--------------------------------------------------|
E|--------------------------------------------------|            
Submit corrections


        Round Here lessons Hard to play? Try these video lessons and learn fast Round Here lessons
        
↑ Back to top | Tablatures and chords for acoustic guitar and electric guitar, ukulele, drums are parodies/interpretations of the original songs. You may use it for private study, scholarship, research or language learning purposes only