» » »

Flipsyde - Get Ready Tabs

Artists:  A B C D E F G H I J K L M N O P Q R S T U V W X Y Z # 

Get Ready Tabs

(ver. 1) Click to play this song!
Flipsyde
 Rating:
4.3/5 (6 votes)

 Get Ready lessons Tabs too difficult? Try these video lessons and learn fast
 
                -------------------------------------------------------------------------------
-------------------------------------------------------------------------------

Tuning: Bm|A|G|A

e|----7-7-----5-5-----3-3-------------------------------------|
B|----7-7-----5-5-----3-3-------------------------------------|
G|----7-7-----6-6-----4-4-------------------------------------|
D|----9-7-----7-7-----5-5-------------------------------------|
A|----9-9-----7-7-----5-5-------------------------------------|
E|----7-7-----5-5-----3-3-------------------------------------|

This how it goes through the whole song:D
It's a very good and very simple song!
            
Submit corrections


        Get Ready lessons Hard to play? Try these video lessons and learn fast Get Ready lessons
        
↑ Back to top | Tablatures and chords for acoustic guitar and electric guitar, ukulele, drums are parodies/interpretations of the original songs. You may use it for private study, scholarship, research or language learning purposes only