Home » F » Flight Of The Conchords »

Flight Of The Conchords - Something For The Ladies Tabs

Artists:  A B C D E F G H I J K L M N O P Q R S T U V W X Y Z # 

Something For The Ladies Tabs

(ver. 1) Click to play this song!
Flight Of The Conchords
 Rating:
4/5 (4 votes)
                -------------------------------------------------------------------------------
-------------------------------------------------------------------------------

Tuning: Standard

So this song is fingerpicked, kind of unusual from what I've heard from these
guys, but uh..in this tab I'll just show it in parts, and for future reference,
x's along the strings will mean that Bret is slapping his wrists on them.


Intro/Verse:
e|-------x--------x--------x--------x--------x--------x--------x--------x----|
B|-----6-x--6--6--x------6-x--6--6--x------2-x--2--2--x------4-x--4--4--x----|
G|-----6-x--6--6--x------6-x--6--6--x------3-x--3--3--x------2-x--2--2--x----|
D|-------x--------x--------x--------x--------x--------x--------x--------x----|
A|-------x--------x--------x--------x--------x--------x---2----x--2-----x----|
E|--6----x--6-----x---6----x--6-----x---2----x--2-----x--------x--------x----|

Sometimes Bret changes it up and plays this(not a big difference):
e|-------x--------x--------x--------x--------x--------x--------x--------x----|
B|-----6-x--6--6--x------6-x--6--6--x------2-x--2--2--x------7-x--7--7--x----|
G|-----6-x--6--6--x------6-x--6--6--x------3-x--3--3--x------8-x--8--8--x----|
D|-------x--------x--------x--------x--------x--------x--------x--------x----|
A|-------x--------x--------x--------x--------x--------x--------x--------x----|
E|--6----x--6-----x---6----x--6-----x---2----x--2-----x---7----x--7-----x----|


Chorus:
e|-------x--------x--------x--------x--------x--------x--------x--------x----|
B|-----9-x--9--9--x------6-x--6--6--x------7-x--7--7--x------7-x--7--7--x----|
G|-----10x--10-10-x------6-x--6--6--x------8-x--8--8--x------8-x--8--8--x----|
D|-------x--------x--------x--------x--------x--------x--------x--------x----|
A|---8---x--8-----x--------x--------x--------x--------x--------x--------x----|
E|-------x--------x---6----x--6-----x---7----x--7-----x---7----x--7-----x----|


Post Chorus: Same pattern, with the chords F, E, G#, Am7?(686666)

Bass-y Bridge-y Part:(This is just what I play, what they play is more complicated)
e|---------------------------------------------------------------------------|
B|---------------------------------------------------------------------------|
G|---------------------------------------------------------------------------|
D|---------------------------------------------------------------------------|
A|----8--------------8--------------4--------------4-------------------------|
E|--6---6-6668986--6---6-6668986--2---2-2224542--2---2-2224542---------------|


| /  slide up
| \  slide down
| h  hammer-on
| p  pull-off
| ~  vibrato
| +  harmonic
| x  Mute note
===============================================================================
            
Submit corrections

↑ Back to top | Tablatures and chords for acoustic guitar and electric guitar, ukulele, drums are parodies/interpretations of the original songs. You may use it for private study, scholarship, research or language learning purposes only