» » »

Flight Of The Conchords - Shes So Hot Boom Bass

Artists:  A B C D E F G H I J K L M N O P Q R S T U V W X Y Z # 

Shes So Hot Boom Bass

(ver. 1) Click to play this song!
Flight Of The Conchords
 Rating:
4/5 (4 votes)

 Shes So Hot Boom lessons Tabs too difficult? Try these video lessons and learn fast
 
                ---------------------------------------------------------------------------
      She's So Hot Boom - Flight of the Conchords (HBO Series version)
---------------------------------------------------------------------------


Tuning: standard

Intro

G|-----------|
D|-----------|    x 5
A|-----------|
E|5--5--5-5--|

then he plays this little diddy:

G|----------------|
D|----------------|
A|----------------|
E|5----5-7-8-7-5--|

back to

G|-----------|
D|-----------|    x 3
A|-----------|
E|5--5--5-5--|

G|----------------|
D|----------------|
A|----------------|
E|5----5-7-8-7-5--| on the fourth

This is played twice then the drums kick in, and it's played again. But then...

The first day of boom and the flowers are blooming...
G|--------------------------------|
D|--------------------------------|
A|----7------6-------5------------|
E|5-5----5-5----5-5-----5-7-8-7-5-|

Boom ba-boom like a rocket taking off to the moon...
G|------------------------|
D|------------------------|
A|---------7--------------|
E|5-5--5-5---5--5-7-8-7-5-|

See you shaking that boom boom...
G|-----------------------------|
D|-----------------------------|
A|---------6-------------------|
E|5---5-5-----5------5-7-8-7-5-|

That covers all the measures, 'cept the "You like boom, I like boom..." bridge which is 
more E|--5--.


Easy peezy!
            
Submit corrections


        Shes So Hot Boom lessons Hard to play? Try these video lessons and learn fast Shes So Hot Boom lessons
        
↑ Back to top | Tablatures and chords for acoustic guitar and electric guitar, ukulele, drums are parodies/interpretations of the original songs. You may use it for private study, scholarship, research or language learning purposes only