» » »

Flight Of The Conchords - Albi The Racist Dragon Tabs

Artists:  A B C D E F G H I J K L M N O P Q R S T U V W X Y Z # 

Albi The Racist Dragon Tabs

(ver. 1) Click to play this song!
Flight Of The Conchords
 Rating:
4.8/5 (21 vote)

 Albi The Racist Dragon lessons Tabs too difficult? Try these video lessons and learn fast
 
                Last Update: 09-27-09(Fixed ending chord of 1st section, changed verse to be played with 
chords after watching more videos)


Intro:
e|-3--33--3---|-3--33--3---|-3--33--3--|-1--11--1--|
B|-5--55--5---|-5--55--5---|-3--33--3--|-3--33--3--|
G|-5--55--5---|-4--44--4---|-3--33--3--|-2--22--2--|
D|------------|------------|-----------|-----------|
A|------------|------------|-----------|-----------|
E|------------|------------|-----------|-----------|

e|---------1h3p1-----|-3\-|
B|------1--------1---|-3\-|
G|----1--1-----------|-4\-|
D|--3----------------|-0\-|
A|-------------------|----|
E|-------------------|----|

Verse
Play this until "They just don't like you and I"
Can be played two different ways, the first:

e|-3--33--3---|-3--33--3---|-3--33--3--|-1--11--1--|
B|-5--55--5---|-5--55--5---|-3--33--3--|-3--33--3--|
G|-5--55--5---|-4--44--4---|-3--33--3--|-2--22--2--|
D|------------|------------|-----------|-----------|
A|------------|------------|-----------|-----------|
E|------------|------------|-----------|-----------|

e|-1--11--1--|-3--33--3--|
B|-1--11--1--|-3--33--3--|
G|-1--11--1--|-4--44--4--|
D|-----------|-0--00--0--|
A|-----------|-----------|
E|-----------|-----------|

Or with some Different Chords:
e|-0--00--0---|-0--00--0---|-3--33--3--|-1--11--1--|
B|-1--11--1---|-0--00--0---|-3--33--3--|-3--33--3--|
G|-0--00--0---|-0--00--0---|-3--33--3--|-2--22--2--|
D|-2--22--2---|-2--22--2---|-5--55--5--|-0--00--0--|
A|-3--33--3---|-2--22--2---|-5--55--5--|-0--00--0--|
E|------------|-0--00--0---|-3--33--3--|-----------|

e|-1--11--1--|-3--33--3--|
B|-1--11--1--|-3--33--3--|
G|-1--11--1--|-4--44--4--|
D|-3--33--3--|-5--55--5--|
A|-3--33--3--|-5--55--5--|
E|-1--11--1--|-3--33--3--|

"Because were different to them"
e|----|
B|-12-|
G|-12-|
D|----|
A|----|
E|----|

Rest of Song

e|-3--33--3---|-3--33--3---|-3--33--3--|-1--11--1--|
B|-5--55--5---|-5--55--5---|-3--33--3--|-3--33--3--|
G|-5--55--5---|-4--44--4---|-3--33--3--|-2--22--2--|
D|------------|------------|-----------|-----------|
A|------------|------------|-----------|-----------|
E|------------|------------|-----------|-----------|

e|-1--11--1--|-3--33--3--|
B|-1--11--1--|-3--33--3--|
G|-1--11--1--|-4--44--4--|
D|-----------|-0--00--0--|
A|-----------|-----------|
E|-----------|-----------|

Final Strums
(Bret seems to finish with different chords, here are some that work)
e|-0-|-0-|
B|-1-|-1-|
G|-2-|-0-|
D|-2-|-2-|
A|-0-|-3-|
E|-0-|-x-|

There you have it, very, very simple song. Good luck and if you have any questions, or

Lyrics:
In the marmalade forest! (forest)
Between the make beleive trees!
In a cottage cheese cottage?
Lives Albi, Albi, Albi, Albi
Albi, the racist dragon.

Part 6

And so, all of the villagers chased Albi
The racist dragon, into a very cold,
and very scary cave.
And it was so cold, and so scary in there.
That Albi began to cry, Dragon tears...
Which as we all know turn into Jelly Beans!

Anyway, at that moment, he felt a tiny little hand rest upon his tail.
And he turned around.
Who should that little hand belong to,
but the badly burnt Albanian boy from the day before.

"What are you doing here, I thought I killed you yesterday?"
Grumbled Albi, quite racistly.

"No Albi, you didn't kill me with your dragon flames,
I crawled to safety. But you did leave me very badly disfigured."
Laughed the boy.

"Why are you crying so?"
"I'm crying because all of those horrible villagers
chased me into this scary cave. I think it's because im so racist.
Get your hand off my tail, you'll make it dirty."

"No Albi, it's not because of your racism that they chased you here.
They chased me here too when I became all disfigured like this.
They just don't like you and I,
well, because, were different to them."

And at that moment Albi cried a single tear,
which turned into a jelly bean, all the colors of the rainbow!
And suddenly, he wasn't racist, anymore.

So they sat in the cave (cave)
And ate bubblegum pie, YUM!
Albi, the racist..
Well, not anymore...
Dragon...
            
Submit corrections


        Albi The Racist Dragon lessons Hard to play? Try these video lessons and learn fast Albi The Racist Dragon lessons
        
↑ Back to top | Tablatures and chords for acoustic guitar and electric guitar, ukulele, drums are parodies/interpretations of the original songs. You may use it for private study, scholarship, research or language learning purposes only