Home » F » Flickerstick »

Flickerstick - You're So Hollywood Tabs

Artists:  A B C D E F G H I J K L M N O P Q R S T U V W X Y Z # 

You're So Hollywood Tabs

(ver. 1) Click to play this song!
Flickerstick
 Rating:
4/5 (4 votes)
                there is only one verse in the whole song
~~=slide

Intro                                  Second Guitar:
e ------------------------    x9        (1st)  D chord    2    3
- - 7---5---7--7-8-7------              (2nd)  A chord    2    3
- -7--7---7--7-------------                               2    3
- ---------------------                                   4    5
- ---------------------                              (3rd)4    5  (4th)
E ---------------------                                   2    3


Verse
e -----------------------------------------------------------------------------------
- -----------------------------------------------------------------------------------
- -----------------------------------------------------------------------------------
- ----7-7---7-7---7-7-9-9-7-7----7-7----7-7----7-7-9-9-7-7----4-4---4-4---4-4-5-5-4-0
- 5-5----5-5----5-5------------------------------------------------------------------
E ------------------------------5-5----5-5----5-5-----------2-2---2-2---2-2----------

e ----------------------------------
- ----------------------------------
- ---4-4-----4-4----4-4~~7-7-6-6----
- ----------------------------------
- ----------------------------------
E -0-0---0-0-----0-0----------------

Chorus
e -------------------------------------------    DOWN UP UP DOWN FOR ALL OF THEM
- -------------------------------------------           let ring after you play them
- -7-7-7-7--------------------9-9-9-9--------
- -7-7-7-7--7-7-7-7--4-4-4-4--9-9-9-9--------
- -5-5-5-5--7-7-7-7--4-4-4-4--7-7-7-7--------
E ----------5-5-5-5--2-2-2-2--0-0-0-0--------
            
Submit corrections

↑ Back to top | Tablatures and chords for acoustic guitar and electric guitar, ukulele, drums are parodies/interpretations of the original songs. You may use it for private study, scholarship, research or language learning purposes only