Home » F » Flickerstick »

Flickerstick - Beautiful Bass

Artists:  A B C D E F G H I J K L M N O P Q R S T U V W X Y Z # 

Beautiful Bass

(ver. 1) Click to play this song!
Flickerstick
tuning: standard

note: Some of the fills I am unsure of. I am also not sure if the "/12"(etc) 
is correct, but it sounded really damn good when I was playing it so I left 
it. You can throw in the fills you want, as with any song...this is just what 
I heard and what I thought sounded good. and sometimes it is easier to play the 
open A instead of the A on the E-string


Verses: (all similar except the fills)

G --------------------------------------------
D --------------------------------------------
A --------------------------------------------
E--9-9-9-9-9-9-9--7-7-7-7-7-7-7-5-5-5-5-5-5-5-5


Chorus:

G -----------------------------------------------------
D -----------------------------------------------------
A ----------------------------------------------8h8--7h7
E --9-9-9-9-/12\-7-7-7-7-/9\-5-5-5-5-5-5-5-5-5----------


Bridge:

G ---------------------
D ---------------------
A ---------0---8-7-----
E --9--7---------------

Ending: he's playing octaves in the last chorus(at least twice I am sure of) 
so it would be: 

G ----------------------------------
D --11-11-11-11--9-9-9-9-7-7-7-7----
A ----------------------------------
E ----------------------------------
            
Submit corrections

↑ Back to top | Tablatures and chords for acoustic guitar and electric guitar, ukulele, drums are parodies/interpretations of the original songs. You may use it for private study, scholarship, research or language learning purposes only