Home » F » Fleshgod Apocalypse »

Fleshgod Apocalypse - Prologue Tabs

Artists:  A B C D E F G H I J K L M N O P Q R S T U V W X Y Z # 

Prologue Tabs

(ver. 1) Click to play this song!
Fleshgod Apocalypse
 Rating:
3.3/5 (29 votes)
                e|------7--------------------------------10-----7-----3---2---0------------------|
B|------7-----7--------------2---R--7----12-----7-7---2---2---2---3--------------|
G|-7----7---7---7-4------3--3----E--7----11-----7--7--3---3---3---3--------------|
D|-9----9---9-----4------4-4-----S--9----9------9-------4---4---4----------------|
A|-9----9---9-----5------4-------T--9----9---------------------------------------|
E|-7--------7-----7---6-------------7--------------------------------------------|

Faster Playing
e|----7----------------7---------6---9----7----------6------7----6--9--------|
B|-7---7--------11------7-8------7---11----7-8------7-7--7---7---7--11-------|
G|--7---7-----11--11-----7-7-----6---9------7-7----6------7---7--6--9--------|
D|---9------12------12------9------------------9--8--------9-----------------|
A|--------13-----------------------------------------------------------------|
E|-7-------------------7-------6---9------7------6-------7------6--9---------|
  [-----]             [------]
   ^^^^^               ^^^^^^
Remember these shapes because they repeat a ton!

e|-7--7-----7---7--7----------2---3----7-10-7--0---3-------------------------|
B|--7--7---7-7---7--7--8---8---3---3---7-7--7---2---2------------------------|
G|---7--7-7---7---8--8--9-9-9---4---4------------3---3--6--6-----------------|
D|-----------------------9-----------------------------8--8------------------|
A|-5-----5------6------7---------------7-7--7------------7--8----------------|
E|----------------------------2---3------------3---3---0---------------------|
                             [-------]
                              ^^^^^^^
                       You'll see this again too

e|-----------------------9--------7--------6--3------7-------------7------------|
B|--------------------11---11------7-8-----7--5--7----7------8--7---7---10--10--|
G|-----------------11---------11----7-7----6--3---7----7----6-6--7---7--9---9---|
D|--------9-12-9-8---------------------9-----------9-------8------9-----7---7---|
A|------9-------------------------------------------------7---------------------|
E|-7-10---------------------------7-------6--3---7-------6------7------7---9----|

e|-5--5------5---3--3-----2----2--3---------10-15-10---7-----12-----16-------|
B|--7--7----7-7---5--5---5-5----3--3-----12-12-15-12---8-----11-----15-------|
G|---7--7--6---6---5--5-4---4----4--4-12-12-----------9----11-----15---------|
D|------------------------------------12-------------8---10-----14-----------|
A|-5------4------3-----2--------------10-10-10-10-10-------------------------|
E|-----------------------------2--3------------------------------------------|
            
Submit corrections

↑ Back to top | Tablatures and chords for acoustic guitar and electric guitar, ukulele, drums are parodies/interpretations of the original songs. You may use it for private study, scholarship, research or language learning purposes only