» » »

Flatsound - Crowded Parks Tabs

Artists:  A B C D E F G H I J K L M N O P Q R S T U V W X Y Z # 

Crowded Parks Tabs

(ver. 1) Click to play this song!
Flatsound
 Rating:
4.3/5 (22 votes)

 Crowded Parks lessons Tabs too difficult? Try these video lessons and learn fast
 
                [Intro]

e|---------------------------------------------------------------------------| 
B|---0---3----0-----------0---0---0---0---3---0-------0----------------------|
G|----------------2---2---------------------------2-------0---0---0----------|
D|---------------------------------------------------------------------------|
A|---------------------------------------------------------------------------|
E|-3---3---3----3---3---3---3---3---3---3---3---3---3---3---3---3------------|

e|---------------------------------------------------------------------------| 
B|---0---3----0-----------0---0---0---0---3---0-------0----------------------|
G|----------------2---2---------------------------2-------0---0---0----------|
D|---------------------------------------------------------------------------|
A|---------------------------------------------------------------------------|
E|-3---3---3----3---3---3---3---3---3---3---3---3---3---3---3---3------------|

Then: "Go away..."

e|---------------------------------------------------------------------------| 
B|---0---3----0-----------0---0---0---0---3---0-------0----------------------|
G|----------------2---2---------------------------2-------0---0---0----------|
D|---------------------------------------------------------------------------|
A|---------------------------------------------------------------------------|
E|-3---3---3----3---3---3---3---3---3---3---3---3---3---3---3---3------------|

e|---------------------------------------------------------------------------| 
B|---0---3----0-----------0---0---0---0---3---0-------0----------------------|
G|----------------2---2---------------------------2-------0---0---0----------|
D|---------------------------------------------------------------------------|
A|---------------------------------------------------------------------------|
E|-3---3---3----3---3---3---3---3---3---3---3---3---3---3---3---3------------|



[Verse 1]

e|---------------------------------------------------------------------------| 
B|---0---3----0-----------0---0---0---0---3---0-------0----------------------|
G|----------------2---2---------------------------2-------0---0---0----------|
D|---------------------------------------------------------------------------|
A|---------------------------------------------------------------------------|
E|-3---3---3----3---3---3---3---3---3---3---3---3---3---3---3---3------------|

e|---------------------------------------------------------------------------| 
B|---0---3----0-----------0---0---0---0---3---0-------0----------------------|
G|----------------2---2---------------------------2-------0---0---0----------|
D|---------------------------------------------------------------------------|
A|---------------------------------------------------------------------------|
E|-3---3---3----3---3---3---3---3---3---3---3---3---3---3---3---3------------|


[Pre-Chorus]

"Stay strong..."

e|---------------------------------------------------------------------------|
B|-------0-------0-------0-------0-------0---------------0-------------------|
G|---0-------0-------0-------0-------0-------0---0---0-------0---0-----------|
D|---------------------------------------------------------------------------|
A|---------------------------------------------------------------------------|
E|-0---0---0---0---0---0---0---0---5---5---5---5---5---5---5---5-------------|

e|---------------------------------------------------------------------------| 
B|---0---3---0-----------0---0---0---0---3---0-------------------------------|
G|----------------2---2---------------------------2---2---2---2---0----------|
D|---------------------------------------------------------------------------|
A|---------------------------------------------------------------------------|
E|-3---3---3---3---3---3---3---3---3---3---3---3---3---3---3---3-------------|

[Chorus]

"I saw her hiding drinks..."

e|---------------------------------------------------------------------------|
B|-------0---------------0---------------0---------------0-------------------|
G|---0-------0---0---0-------0---0---0-------0---0---0-------0---0-----------|
D|---------------------------------------------------------------------------|
A|---------------------------------------------------------------------------|
E|-3---3---3---3---5---5---5---5---3---3---3---3---5---5---5---5-------------|

e|---------------------------------------------------------------------------|
B|-------0---------------0---------------0-------0-------0-------0-----------|
G|---0-------0---0---0-------0---0---0-------0-------0-------0---------------|
D|---------------------------------------------------------------------------|
A|---------------------------------------------------------------------------|
E|-3---3---3---3---5---5---5---5---3---3---3---3---3---3---3---3-------------|


"go away..."

e|---------------------------------------------------------------------------| 
B|---0---3----0-----------0---0---0---0---3---0-------0----------------------|
G|----------------2---2---------------------------2-------0---0---0----------|
D|---------------------------------------------------------------------------|
A|---------------------------------------------------------------------------|
E|-3---3---3----3---3---3---3---3---3---3---3---3---3---3---3---3------------|

e|---------------------------------------------------------------------------| 
B|---0---3----0-----------0---0---0---0---3---0-------0----------------------|
G|----------------2---2---------------------------2-------0---0---0----------|
D|---------------------------------------------------------------------------|
A|---------------------------------------------------------------------------|
E|-3---3---3----3---3---3---3---3---3---3---3---3---3---3---3---3------------|

[Verse 2]

e|---------------------------------------------------------------------------| 
B|---0---3----0-----------0---0---0---0---3---0-------0----------------------|
G|----------------2---2---------------------------2-------0---0---0----------|
D|---------------------------------------------------------------------------|
A|---------------------------------------------------------------------------|
E|-3---3---3----3---3---3---3---3---3---3---3---3---3---3---3---3------------|

e|---------------------------------------------------------------------------| 
B|---0---3----0-----------0---0---0---0---3---0-------0----------------------|
G|----------------2---2---------------------------2-------0---0---0----------|
D|---------------------------------------------------------------------------|
A|---------------------------------------------------------------------------|
E|-3---3---3----3---3---3---3---3---3---3---3---3---3---3---3---3------------|

[Pre-Chorus]

"Because i’ve..."

e|---------------------------------------------------------------------------|
B|-------0-------0-------0-------0-------0---------------0-------------------|
G|---0-------0-------0-------0-------0-------0---0---0-------0---0-----------|
D|---------------------------------------------------------------------------|
A|---------------------------------------------------------------------------|
E|-0---0---0---0---0---0---0---0---5---5---5---5---5---5---5---5-------------|

e|---------------------------------------------------------------------------| 
B|---0---3---0-----------0---0---0---0---3---0-------------------------------|
G|----------------2---2---------------------------2---2---2---2---0----------|
D|---------------------------------------------------------------------------|
A|---------------------------------------------------------------------------|
E|-3---3---3---3---3---3---3---3---3---3---3---3---3---3---3---3-------------|

[Chorus]

"Have you broke..."

e|---------------------------------------------------------------------------|
B|-------0---------------0---------------0---------------0-------------------|
G|---0-------0---0---0-------0---0---0-------0---0---0-------0---0-----------|
D|---------------------------------------------------------------------------|
A|---------------------------------------------------------------------------|
E|-3---3---3---3---5---5---5---5---3---3---3---3---5---5---5---5-------------|

e|---------------------------------------------------------------------------|
B|-------0---------------0---------------0-------0-------0-------0-----------|
G|---0-------0---0---0-------0---0---0-------0-------0-------0---------------|
D|---------------------------------------------------------------------------|
A|---------------------------------------------------------------------------|
E|-3---3---3---3---5---5---5---5---3---3---3---3---3---3---3---3-------------|

"go away..."

e|---------------------------------------------------------------------------| 
B|---0---3----0-----------0---0---0---0---3---0-------0----------------------|
G|----------------2---2---------------------------2-------0---0---0----------|
D|---------------------------------------------------------------------------|
A|---------------------------------------------------------------------------|
E|-3---3---3----3---3---3---3---3---3---3---3---3---3---3---3---3------------|

e|---------------------------------------------------------------------------| 
B|---0---3----0-----------0---0---0---0---3---0-------0----------------------|
G|----------------2---2---------------------------2-------0---0---0----------|
D|---------------------------------------------------------------------------|
A|---------------------------------------------------------------------------|
E|-3---3---3----3---3---3---3---3---3---3---3---3---3---3---3---3------------|


[Verse 3]

e|---------------------------------------------------------------------------| 
B|---0---3----0-----------0---0---0---0---3---0-------0----------------------|
G|----------------2---2---------------------------2-------0---0---0----------|
D|---------------------------------------------------------------------------|
A|---------------------------------------------------------------------------|
E|-3---3---3----3---3---3---3---3---3---3---3---3---3---3---3---3------------|

e|---------------------------------------------------------------------------| 
B|---0---3----0-----------0---0---0---0---3---0-------0----------------------|
G|----------------2---2---------------------------2-------0---0---0----------|
D|---------------------------------------------------------------------------|
A|---------------------------------------------------------------------------|
E|-3---3---3----3---3---3---3---3---3---3---3---3---3---3---3---3------------|

[Pre-Chorus]

"Because i still..."

e|---------------------------------------------------------------------------|
B|-------0-------0-------0-------0-------0---------------0-------------------|
G|---0-------0-------0-------0-------0-------0---0---0-------0---0-----------|
D|---------------------------------------------------------------------------|
A|---------------------------------------------------------------------------|
E|-0---0---0---0---0---0---0---0---5---5---5---5---5---5---5---5-------------|

e|---------------------------------------------------------------------------| 
B|---0---3---0-----------0---0---0---0---3---0-------------------------------|
G|----------------2---2---------------------------2---2---2---2---0----------|
D|---------------------------------------------------------------------------|
A|---------------------------------------------------------------------------|
E|-3---3---3---3---3---3---3---3---3---3---3---3---3---3---3---3-------------|

[Chorus]

"I played another round"

e|---------------------------------------------------------------------------|
B|-------0---------------0---------------0---------------0-------------------|
G|---0-------0---0---0-------0---0---0-------0---0---0-------0---0-----------|
D|---------------------------------------------------------------------------|
A|---------------------------------------------------------------------------|
E|-3---3---3---3---5---5---5---5---3---3---3---3---5---5---5---5-------------|

e|---------------------------------------------------------------------------|
B|-------0---------------0---------------0-------0-------0-------0-----------|
G|---0-------0---0---0-------0---0---0-------0-------0-------0---------------|
D|---------------------------------------------------------------------------|
A|---------------------------------------------------------------------------|
E|-3---3---3---3---5---5---5---5---3---3---3---3---3---3---3---3-------------|

[Outro]

e|---------------------------------------------------------------------------| 
B|---0---3----0-----------0---0---0---0---3---0-------0----------------------|
G|----------------2---2---------------------------2-------0---0---0----------|
D|---------------------------------------------------------------------------|
A|---------------------------------------------------------------------------|
E|-3---3---3----3---3---3---3---3---3---3---3---3---3---3---3---3------------|

e|---------------------------------------------------------------------------| 
B|---0---3----0-----------0---0---0---0---3---0-------0----------------------|
G|----------------2---2---------------------------2-------0---0---0----------|
D|---------------------------------------------------------------------------|
A|---------------------------------------------------------------------------|
E|-3---3---3----3---3---3---3---3---3---3---3---3---3---3---3---3---3--------|            
Submit corrections


        Crowded Parks lessons Hard to play? Try these video lessons and learn fast Crowded Parks lessons
        
↑ Back to top | Tablatures and chords for acoustic guitar and electric guitar, ukulele, drums are parodies/interpretations of the original songs. You may use it for private study, scholarship, research or language learning purposes only