Home » F » Flaming Lips »

Flaming Lips - She Don't Use Jelly Tabs

Artists:  A B C D E F G H I J K L M N O P Q R S T U V W X Y Z # 

She Don't Use Jelly Tabs

(ver. 1) Click to play this song!
Flaming Lips
 Rating:
4/5 (4 votes)
                The Flaming Lips
"She Don't Use Jelly"


High melody line: the slide from the second fret isn't neccessary but it sounds good

       D         G         A       G     A     D
e------------------------------------------------------
B------------------------------------------------------
G--(2/)11--11-11-12-11-----11------11-12-11-14-11-17\9-
D----------------------14------------------------------
A------------------------------------------------------
E------------------------------------------------------


Sometimes:
       
       D         G         A       G     A     D
e------------------------------------------------------
B------------------------------------------------------
G--(2/)11--11-11-14-11-----11------11-12-11-14-11-17\9-
D----------------------14------------------------------
A------------------------------------------------------
E------------------------------------------------------

CHORDS!!

Intro, see above, listen for the strumming patterns, it's really obvious...


D                 C
i know a girl who thinks of ghosts

D              
she'll make ya breakfast

C
she'll make ya toast

D
she don't use butter

C
she don't use cheese

G
she don't use jelly

A
or any of these

         D     C     G
she uses vaaaaaaaaaseline

D    C     G
vaaaaaaaaseline

D    C     G
vaaaaaaaaseline


D                C
i know a guy who goes to shows

D                    C
when he's at home and he blows his nose

D                   C
he don't use tissues or his sleeve

G                       A
he don't use napkins or any of these

        D   C    G
he uses maaaaaagazines

D   C    G
maaaaaagazines X3

(with high melody part)
maaaagazines
            
Submit corrections

↑ Back to top | Tablatures and chords for acoustic guitar and electric guitar, ukulele, drums are parodies/interpretations of the original songs. You may use it for private study, scholarship, research or language learning purposes only