Home » F » Flaming Lips »

Flaming Lips - Ego Tripping At The Gates Of Hell Bass

Artists:  A B C D E F G H I J K L M N O P Q R S T U V W X Y Z # 

Ego Tripping At The Gates Of Hell Bass

(ver. 1) Click to play this song!
Flaming Lips
                Difficulty: semi-hard (hard to keep up and [play along sometimes.)
*note-these are twelves, etc... not 1s and 2s etc...

Main Riff:
G--------------------|--------------------|---------------|
D--------------------|--------------------|---------------|
A--------------------|--------------------|---------------|
E-12--14-14-14-12-16-|-16--14-14-14-16-12-|-0-12-13-14-12-|


Other riff that follows:
G----------------------|--------------------|--------------------|---------------------|
D----------------------|--------------------|--------------------|---------------------|
A-14--16-16-16-14------|-12--14-14-14-12-16-|-14--16-16-16-14----|-14--12-12-12-14-----|
E-----------------14---|--------------------|-----------------14-|-----------------12-|

Fill Parts (you will know where to put these in if you listen good.  They are used in the outro the most.)
G----------------|-------------|-------------|-------------|---------------|-----------------|
D----------------|-------------|-------------|-------------|---------------|-----------------|
A----------------|-14-12-------|-------------|-------------|-0-12-13-14-12-|-----------------|
E-12-14-12-16-14-|-------14-12-|-16-14-12-14-|-12-14-16-14-|---------------|-0-12-13-14-12-|

I know not many people will probably even look at this tab but I don't care.  This is a great song and I felt it should be tabed so here it is.
Note that I didn't write it and that this is only my way of playing it. (wish I had written it though).

The Flaming Lips Rule!
            
Submit corrections

↑ Back to top | Tablatures and chords for acoustic guitar and electric guitar, ukulele, drums are parodies/interpretations of the original songs. You may use it for private study, scholarship, research or language learning purposes only