» » »

Five Iron Frenzy - Every New Day Full Song Bass

Artists:  A B C D E F G H I J K L M N O P Q R S T U V W X Y Z # 

Every New Day Full Song Bass

(ver. 1) Click to play this song!
Five Iron Frenzy
 Rating:
4/5 (4 votes)


 Every New Day Full Song lessons Tabs too difficult? Try these video lessons and learn fast
 
                r=Rest

Intro/Verse/Chorus
Come in when Reese shouts his second "HA!" (about four measures into it)
G---------------------------------------------------------------------
D-------------1-1-2-2-------------------------1-1-2-2-----------------
A-4-4-r-0-2-2---------r-2-0-0-3-3-4-4-r-0-2-2---------r-2-0-0-3-3-4-4-
E---------------------------------------------------------------------

Pre-Chorus
G------------6-6---------------------------6-6----------------
D-4-4--4-7-7----------------6-6-4-4--4-7-7----------------6-6-
A----------------4-4--4-7-7--------------------4-4--4-7-7-----
E-------------------------------------------------------------
then
G--------------------------------------6-6------------5-5-----
D-7-7--7----------------6-6-9-9-7-7--7-----7-7-6-6--6-----6-6-
A--------4-4-6-6-7-7--7---------------------------------------
E-------------------------------------------------------------

Pre-Bridge
G-------------------------------------------------------------
D-------------------------------------------------------------
A----------333-666-------------444-777-------------333-666----
E-44444444---------44-55555555---------55-44444444---------44-

G-----------------------------
D-----------------------------
A------4-7-4----------6-9-6---
E-5555-------5---7777-------7-

Bridge
G--------------------------------------------------------
D------2-2-----------2-2-----------4-4-----------4-4-----
A-4444----------4444----------5555----------5555---------
E----------4-4-----------4-4-----------5-5-----------5-5-

2nd Bridge
G--------------------------------------------------------
D------1-1-----------1-1---------------------------------
A-2222----------2222----------0000-4-4------0000-4-4-----
E----------2-2-----------2-2-----------0-0-----------0-0-

G-----------------------------------------------
D------1-1-----------1-1------------------------
A-2222----------2222----------00000000-22222222-
E----------2-2-----------2-2--------------------

Ending					           End on
G--------------------------------------------------------------------------|---
D-22222222-----------------------------------------------------------------|---
A----------22222222-33333333-4444-2220-00000000-------------------22222222-|---
E-----------------------------------------------44444444-22222222----------|-0-

Rest for Four Measures
Intro/Verse/Chorus: 6x
Pre-Chorus: 1x
Intro/Verse/Chorus: 6x
Pre-Chorus: 1x
Intro/Verse/Chorus: 4x
Pre-Bridge: 1x
Bridge: 4x
2nd Bridge: 1x
Ending: 6x

Enjoy, feel free to rate or correct my tab.
            
Submit corrections



        Every New Day Full Song lessons Hard to play? Try these video lessons and learn fast Every New Day Full Song lessons
        
↑ Back to top | Tablatures and chords for acoustic guitar and electric guitar, ukulele, drums are parodies/interpretations of the original songs. You may use it for private study, scholarship, research or language learning purposes only