» » »

Five For Fighting - 100 Years Tabs

Artists:  A B C D E F G H I J K L M N O P Q R S T U V W X Y Z # 

100 Years Tabs

(ver. 1) Click to play this song!
Five For Fighting
 Rating:
4.2/5 (22 votes)

 100 Years  lessons Tabs too difficult? Try these video lessons and learn fast
 
                
  G           C              Am7       D7           Em7          Em
e|------3-3----------------------3-3---------------------3-3-----------------|
B|----------0-----1---1h3p1----------0-----1---1h3p1---------3p0-------------|
G|---0----------0---0----------0---------2---2---------0-----------------0---|
D|-------------------------------------0-----------------------------2-------|
A|------------3--------------0-----------------------2-------------2---2-----|
E|3--------------------------------------------------------------0-----------|

  Am7     D7
e|--------2------------------------------------------------------------------|
B|----1-0-1------------------------------------------------------------------|
G|--------2------------------------------------------------------------------|
D|--2-----0------------------------------------------------------------------|
A|0-------x------------------------------------------------------------------|
E|--------x------------------------------------------------------------------|
          (start strumming the song here)
          (G, C, Am7, D7, Em7, Em, Am7, D7)

            
Submit corrections


        100 Years  lessons Hard to play? Try these video lessons and learn fast 100 Years  lessons
        
↑ Back to top | Tablatures and chords for acoustic guitar and electric guitar, ukulele, drums are parodies/interpretations of the original songs. You may use it for private study, scholarship, research or language learning purposes only