» » »

Five Finger Death Punch - The Way Of The Fist Tabs

Artists:  A B C D E F G H I J K L M N O P Q R S T U V W X Y Z # 

The Way Of The Fist Tabs

(ver. 2) Click to play this song!
Five Finger Death Punch
 Rating:
4/5 (4 votes)

 The Way Of The Fist lessons Tabs too difficult? Try these video lessons and learn fast
 
                This is actually B tuning (low to high) B E A D F# b
|-------------------------------|x4
|-------------------------------|
|-------------------------------|
|-------------------------------|
|-----------------------3200----|
|-0-0-3200-0-3200-0-3200----320-| p=palm mute
  p p pppp p pppp p ppppppppppp
|-----------------------------------|x8
|-----------------------------------|
|-----------------------------------|
|-----------------------------------|
|-----------3---3s4-----3200--------|
|-0-0-000-0-1-0-1s2-0-0-----0-0-3200|s=slide
*solo* starts on 5th time of   ^
>>>>>>>>>>>>>>>>>>>>>>>>>>>>>>>^
|10-12-13-13-12-10---------------------------------------|
|-----------------13-10--10-12-10-10---------------------|
|----------------------13-----------13-10------9-10-10-9-|
|-----------------------------------------12-12----------|
|--------------------------------------------------------|
|--------------------------------------------------------|

|--------------------------------------------------------|
|--------------------------------------------------------|
|--------------------------------------------------------|
|-12-9-----10-9------------9-----------------------------|
|-----12-12----11-12~-11-12-12-11-8-11---8--8------3-----|
|--------------------------------------12-10-12-10~-4-5~-|

|-------------------------------------10-12-13-12-10----------------------|
|-------8-7--------7-8-10-8-7-10-12-13---------------13-12-10-9-10-9------|
|------9---9-8-9-------------9---------------------------------------10-9~|
|-----9----------9--------------------------------------------------------|
|-7-10--------------------------------------------------------------------|
|-------------------------------------------------------------------------|

|-------------------------------|x4
|-------------------------------|
|-------------------------------|
|-------------------------------|
|-----------------------3200----|
|-0-0-3200-0-3200-0-3200----320-| p=palm mute
  p p pppp p pppp p ppppppppppp

|-----------------------------------|x4
|-----------------------------------|
|-----------------------------------|
|-----------------------------------|
|-----------3---3s4-----3200--------|
|-0-0-000-0-1-0-1s2-0-0-----0-0-3200|s=slide p=palm mute
  p p ppp p   p     p p ppppp p pppp

|----------------------------------------------------------------|x3
|----------------------------------------------------------------|
|----------------------------------------------------------------|
|---------------------------------2-----2-----2-----4-----4-----4|p*=light
|-4-----4-----4-----4-----5-4-2-0-0-000-0-000-0-000-2-222-2-222-2|palm mute
|-2-222-2-222-2-222-2-2222---------------------------------------|p=palm mute
    ppp   ppp   ppp   ppppp*p*p*p*  ppp   ppp   ppp   ppp   ppp
|--------------------------------------|this is my fav riff from this song
|--------------------------------------|
|--------------------------------------|
|----------------6-8-------------------|
|-------------------7-8----------------|
|-0-0-0-1-0-0-0-1------0-0-0-1-0-0-0-1-|p=palm mute
  p p p p p p p pp pp pp p p p p p p p

|---------------------------------------------------------------|x2
|----------------------9-10------------------------------9t(10)-|
|--7-9--9-10--7-9--9-10----9-10-7-9-7-9--9-10-7-9---9-10--------|
|---------------------------------------------------------------|
|-7----7-----7---7-----------------7----7----7----7-------------|t=trill
|---------------------------------------------------------------|p=palm mute
  p    p     p   p                 p    p     p   p

|-------------------------------|x4
|-------------------------------|
|-------------------------------|
|-------------------------------|
|-----------------------3200----|
|-0-0-3200-0-3200-0-3200----320-| p=palm mute
  p p pppp p pppp p ppppppppppp


|-----------------------------------|x4
|-----------------------------------|
|-----------------------------------|
|-----------------------------------|
|-----------3---3s4-----3200--------|
|-0-0-000-0-1-0-1s2-0-0-----0-0-3200|s=slide p=palm mute
  p p ppp p   p     p p ppppp p pppp


|----------------------------------------------------------------|x2
|----------------------------------------------------------------|
|----------------------------------------------------------------|
|---------------------------------2-----2-----2-----4-----4-----4|p*=light
|-4-----4-----4-----4-----5-4-2-0-0-000-0-000-0-000-2-222-2-222-2|palm mute
|-2-222-2-222-2-222-2-2222---------------------------------------|p=palm mute
    ppp   ppp   ppp   ppppp*p*p*p*  ppp   ppp   ppp   ppp   ppp

|-------4---------------|x2
|----7--------7-----7---|play slowly
|-6--------------6------|
|----------4------------|
|-----------------------|
|-----------------------|

|-------4----------------------------4------------------|x2
|-----7---7------------------------7---7----------------|play slowly
|---6-------6--------4-------4---6-------6---------4----|
|-4----------------7-------7---4-----------------7------|
|--------------7-7--------------------------7-7---------|
|----------------------7------------------------------7-|

|--------------------------------------|
|--------------------------------------|
|--------------------------------------|
|----------------6-8-------------------|
|-------------------7-8----------------|
|-0-0-0-1-0-0-0-1------0-0-0-1-0-0-0-1-|p=palm mute
  p p p p p p p pp pp pp p p p p p p p

|---------------------------------------------------------------|x3
|----------------------9-10------------------------------9t(10)-|
|--7-9--9-10--7-9--9-10----9-10-7-9-7-9--9-10-7-9---9-10--------|
|---------------------------------------------------------------|
|-7----7-----7---7-----------------7----7----7----7-------------|t=trill
|---------------------------------------------------------------|p=palm mute
  p    p     p   p                 p    p     p   p

|----------------------------------------------------------------|x2
|----------------------------------------------------------------|
|----------------------------------------------------------------|
|---------------------------------2-----2-----2-----4-----4-----4|p*=light
|-4-----4-----4-----4-----5-4-2-0-0-000-0-000-0-000-2-222-2-222-2|palm mute
|-2-222-2-222-2-222-2-2222---------------------------------------|p=palm mute
    ppp   ppp   ppp   ppppp*p*p*p*  ppp   ppp   ppp   ppp   ppp

|-------4---------------|x2
|----7--------7-----7---|play slowly
|-6--------------6------|
|----------4------------|
|-----------------------|
|-----------------------|

|-------4----------------------------4------------------|x4
|-----7---7------------------------7---7----------------|play slowly
|---6-------6--------4-------4---6-------6---------4----|
|-4----------------7-------7---4-----------------7------|
|--------------7-7--------------------------7-7---------|
|----------------------7------------------------------7-|

thats it if you have corrections then i welcome them
            
Submit corrections


        The Way Of The Fist lessons Hard to play? Try these video lessons and learn fast The Way Of The Fist lessons
        
↑ Back to top | Tablatures and chords for acoustic guitar and electric guitar, ukulele, drums are parodies/interpretations of the original songs. You may use it for private study, scholarship, research or language learning purposes only