» » »

Five Finger Death Punch - The Agony Of Regret Cold Tabs

Artists:  A B C D E F G H I J K L M N O P Q R S T U V W X Y Z # 

The Agony Of Regret Cold Tabs

(ver. 2) Click to play this song!
Five Finger Death Punch
 Rating:
4/5 (4 votes)

 The Agony Of Regret Cold lessons Tabs too difficult? Try these video lessons and learn fast
 
                ----------------------------------------------------------------------------
              Five Finger Death Punch - The Agony of Regret
----------------------------------------------------------------------------

If everyone uses these, i'll try to start making tabs for every song i cover! 
Let me know if the format is clear enough or if anything needs to be adjusted. 
I'm pretty new when it comes to making tabs.



Guitar 1 Acoustic (B  F#  B  E  G# C#)
Guitar 2 Electric (B  F#  B  E  G# C#)
Solo Guitar Electric (B  F#  B  E  G# C#)



Tuning: Drop B (B,F#,B,E,G#,C#)

Guitar 1 Acoustic (begins at 0:08)


D|---------------------------------------------------------------------------------------|
A|---------------------------------------------------------------------------------------|
F|--------2---------------------2---------------------2----------------------7-----------|
C|--3--4-----4--3--4------3--4-----4--3--4------3--4-----4--3--4-------7--8-----8--7--8--|
G|---------------------------------------------------------------------------------------|
C|---------------------------------------------------------------------------------------|


D|---------------------------------------------------------------------------------------|
A|---------------------------------------------------------------------------------------|
F|--------2---------------------2---------------------2----------------------7-----------|
C|--3--4-----4--3--4------3--4-----4--3--4------3--4-----4--3--4-------7--8-----8--7--8--|
G|---------------------------------------------------------------------------------------|
C|---------------------------------------------------------------------------------------|


D|-----------------------------------------------------------------------------------------|
A|-----------------------------------------------------------------------------------------|
F|------2-----3-----2----------2-----3-----2----------3-----3-----2----------2-------------|
C|---3-----3-----3-----3----3-----3-----3-----3----2-----2-----3-----3----3-----3---3--0--3|
G|-----------------------------------------------------------------------------------------|
C|-----------------------------------------------------------------------------------------|
              .  .                   .  .                   .  . 

D|---------------------------------------------------------------------------------------|
A|---------------------------------------------------------------------------------------|
F|------2-----3-----2----------2-----3-----2----------0-----0-----0----------------------|
C|---3-----3-----3-----3----3-----3-----3-----3------------------------------------------|
G|-------------------------------------------------1-----1-----1-------------------------|
C|---------------------------------------------------------------------------------------|
              .  .                   .  .                  


D|---------------------------------------------------------------------------------------|
A|---------------------------------------------------------------------------------------|
F|--------2---------------------2---------------------2----------------------7-----------|
C|--3--4-----4--3--4------3--4-----4--3--4------3--4-----4--3--4-------7--8-----8--7--8--|
G|---------------------------------------------------------------------------------------|
C|---------------------------------------------------------------------------------------|


D|-----------------------------------------------------------------------------------------|
A|-----------------------------------------------------------------------------------------|
F|------2-----3-----2----------2-----3-----2----------3-----3-----2----------2-------------|
C|---3-----3-----3-----3----3-----3-----3-----3----2-----2-----3-----3----3-----3---3--0--3|
G|-----------------------------------------------------------------------------------------|
C|-----------------------------------------------------------------------------------------|
              .  .                   .  .                   .  . 

D|---------------------------------------------------------------------------------------|
A|---------------------------------------------------------------------------------------|
F|------2-----3-----2----------2-----3-----2----------0-----0-----0----------------------|
C|---3-----3-----3-----3----3-----3-----3-----3------------------------------------------|
G|-------------------------------------------------1-----1-----1-------------------------|
C|---------------------------------------------------------------------------------------|






Guitar 2 Electric (Begins at 0:40)



D|-------------5-------------5--------------5--6---8--6--5-------------------------------|
A|------6--8-----------6--8------8-------6------------------6-----8--6-------------------|
F|---5--------------5-----------------5---------------------------------5--7-------------|
C|---------------------------------------------------------------------------------------|
G|---------------------------------------------------------------------------------------|
C|---------------------------------------------------------------------------------------|


D|-12-------12-------------12-------12--------17-----12-------12--------------|
A|----13--------13----15-------13-------13--------------13--------13----15----|
F|-------12--------12-------------12-------12--------------12--------12-------|
C|----------------------------------------------------------------------------|
G|----------------------------------------------------------------------------|
C|----------------------------------------------------------------------------|


D|-------------5-------------5--------------5--6---8--6--5-------------------------------|
A|------6--8-----------6--8------8-------6------------------6-----8--6-------------------|
F|---5--------------5-----------------5---------------------------------5--7-------------|
C|---------------------------------------------------------------------------------------|
G|---------------------------------------------------------------------------------------|
C|---------------------------------------------------------------------------------------|






Solo (Begins at 1:15)


D|--------------------------------------------|
A|--/13--------------13-----------------------|
F|------12-10-12b-------12-10-------10bb------|
C|----------------------------12-10-----------|
G|--------------------------------------------|
C|--------------------------------------------|


D|---------------------------------------------------------------|
A|-----/15~-15-13------------------------------------------------|
F|-------------------12-10---------------------------------------|
C|-------------------------12------------------------------------|
G|----------------------------10-8-12-8h10~--8-------------------|
C|----------------------------------------------12--12-12-10-12--|



************************************

| /   slide up
| \   slide down
| h   hammer-on
| p   pull-off
| ~   vibrato
| +   harmonic
| x   Mute note
| b   Bend
| pb  Pre-bend
| br  Bend release
| pbr Pre-bend release
| brb Bend release bend

************************************
            
Submit corrections


        The Agony Of Regret Cold lessons Hard to play? Try these video lessons and learn fast The Agony Of Regret Cold lessons
        
↑ Back to top | Tablatures and chords for acoustic guitar and electric guitar, ukulele, drums are parodies/interpretations of the original songs. You may use it for private study, scholarship, research or language learning purposes only