» » »

Five Finger Death Punch - Salvation Tabs

Artists:  A B C D E F G H I J K L M N O P Q R S T U V W X Y Z # 

Salvation Tabs

(ver. 3) Click to play this song!
Five Finger Death Punch
 Rating:
4/5 (4 votes)

 Salvation lessons Tabs too difficult? Try these video lessons and learn fast
 
                -----------------------------------------------------------------
Salvation - Five Finger Death Punch
-----------------------------------------------------------------
IS NOT MY WORK!!!)

Tuning: B F# B E G# C#

**Riff 1 and 2 are played on guitars 1 and simultaneously**

Riff 1
  |---------------------------------------------------------------|
  |---------------------------------------------------------------|
  |---------------------------------------------------------------|
  |000-000-0-33-00------------------------------------------------|
  |000-000-0-33-00-00---------------------------------------------|
  |000-000-0-33-00-00-65435432------------------------------------|
PM .   ..          .. ........

Riff 2
  |---------------------------------------------------------------|
  |---------------------------------------------------------------|
  |---------------------------------------------------------------|
  |0-01-00-01------------0-01-00-01---321-------------------------|
  |0-01-00-0100----------0-01-00-0100-321-------------------------|
  |0-01-00-0100-87656543-0-01-00-0100-321-------------------------|
PM              ........


Riff 3 (Guitar 1)
  |---------------------------------------------------------------|
  |---------------------------------------------------------------|
  |---------------------------------------------------------------|
  |0555-xx--0555-xx--0333-xx--0111-333----------------------------|
  |0555-xx--0555-xx--0333-xx--0111-333----------------------------|
  |0555-xx--0555-xx--0333-xx--0111-333----------------------------|

Riff 4a (Guitar 2)
  |---------------------------------------------------------------|
  |---------------------------------------------------------------|
  |----------------8-7---------------8-7--------------------------|
  |5-5-5-5-5-7-8-------8----5-7-8--------8----5-7-8---------------|
  |---------------------------------------------------------------|
  |---------------------------------------------------------------|
Riff 4b (Guitar 2)
  |---------------------------------------------------------------|
  |---------------------------------------------------------------|
  |---------8-7---------------8-7---------------------------------|
  |5-7-8--------5----5-7-8--------8-------------------------------|
  |---------------------------------------------------------------|
  |---------------------------------------------------------------|

Song Riff Setup

Riff 1 (x6)
Riff 2 (x1)
Riff 1 (x4)
Riff 2 (x2)
Riff 3 (x4)
{Guitar 2 plays riff 4a and 4b over Riff 3}
Riff 4a(x1)
Riff 4b(x3)


| /  slide up
| \  slide down
| h  hammer-on
| p  pull-off
| ~  vibrato
| +  harmonic
| x  Mute note
            
Submit corrections


        Salvation lessons Hard to play? Try these video lessons and learn fast Salvation lessons
        
↑ Back to top | Tablatures and chords for acoustic guitar and electric guitar, ukulele, drums are parodies/interpretations of the original songs. You may use it for private study, scholarship, research or language learning purposes only