» » »

Five Finger Death Punch - No One Gets Left Behind Tabs

Artists:  A B C D E F G H I J K L M N O P Q R S T U V W X Y Z # 

No One Gets Left Behind Tabs

(ver. 2) Click to play this song!
Five Finger Death Punch
 Rating:
4/5 (4 votes)

 No One Gets Left Behind lessons Tabs too difficult? Try these video lessons and learn fast
 
                -------------------------------------------------------------------------------
No One Gets Left Behind – Five Finger Death Punch
-------------------------------------------------------------------------------
B Tuning-B E A D F# B

.=Palm Mute

B|-----10--9-----10--9-----10--9-----10--9-----10--9-----------------|
F|--7---------7---------7---------7---------7------------------------|
D|-------------------------------------------------------------------|
A|-------------------------------------------------------------------|
E|-------------------------------------------------------------------|
B|-------------------------------------------------------------------|
 |
B|-------------------------------------------------------------------|
F|-------------------------------------------------------------------|
D|-------------------------------------------------------------------|
A|--2----4-------5----4-------2----4---------------------------------|
E|--2----4-------5----4-------2----4---------------------------------|
B|--0----2---0---3----2---0---0----2---------------------------------|

B|-----10--9-----10--9-----10--9-----10--9-----10--9-----------------|
F|--7---------7---------7---------7---------7------------------------|
D|-------------------------------------------------------------------|
A|-------------------------------------------------------------------|
E|-------------------------------------------------------------------|
B|-------------------------------------------------------------------|
 |
B|-------------------------------------------------------------------|
F|-------------------------------------------------------------------|
D|-------------------------------------------------------------------|
A|--2----4-------5----4-------2----4---------------------------------|
E|--2----4-------5----4-------2----4---------------------------------|
B|--0----2---0---3----2---0---0----2----0--0--0--0-0-0-3-5-6-5-3-0-0-|
                                        .  .  .  . . . . . . . . . .

B|-----10--9-----10--9-----10--9-----10--9-----10--9-----------------|
F|--7---------7---------7---------7---------7------------------------|
D|-------------------------------------------------------------------|
A|-------------------------------------------------------------------|
E|-------------------------------------------------------------------|
B|-------------------------------------------------------------------|
 |
B|-------------------------------------------------------------------|
F|-------------------------------------------------------------------|
D|-------------------------------------------------------------------|
A|--2----4-------5----4-------2----4---------------------------------|
E|--2----4-------5----4-------2----4---------------------------------|
B|--0----2---0---3----2---0---0----2---------------------------------|

B|-----10--9-----10--9-----10--9-----10--9-----10--9-----------------|
F|--7---------7---------7---------7---------7------------------------|
D|-------------------------------------------------------------------|
A|-------------------------------------------------------------------|
E|-------------------------------------------------------------------|
B|-------------------------------------------------------------------|
 |
B|-------------------------------------------------------------------|
F|-------------------------------------------------------------------|
D|-------------------------------------------------------------------|
A|--2----4-------5----4-------2----4---------------------------------|
E|--2----4-------5----4-------2----4---------------------------------|
B|--0----2---0---3----2---0---0----2----0--0--0--0-0-0-3-5-6-5-3-0-0-|
                                        .  .  .  . . . . . . . . . .

B|-------------------------------------------------------------------|
F|-------------------------------------------------------------------|
D|-------------------------------------------------------------------|
A|--2----4-------5----4-------2----4---------------------------------|
E|--2----4-------5----4-------2----4---------------------------------|
B|--0----2---0---3----2---0---0----2----0--0--0--0-0-0-3-5-6-5-3-0-0-|
                                        .  .  .  . . . . . . . . . .

B|-------------------------------------------------------------------|
F|-------------------------------------------------------------------|
D|-------------------------------------------------------------------|
A|--2----4-------5----4-------2----4---------------------------------|
E|--2----4-------5----4-------2----4---------------------------------|
B|--0----2---0---3----2---0---0----2----0--0--0--0-0-0-3-5-6-5-3-0-0-|
                                        .  .  .  . . . . . . . . . .

B|-------------------------------------------------------------------|
F|-------------------------------------------------------------------|
D|-------------------------------------------------------------------|
A|--2----4-------5----4-------2----4---------------------------------|
E|--2----4-------5----4-------2----4---------------------------------|
B|--0----2---0---3----2---0---0----2----0--0--0--0-0-0-3-5-6-5-3-0-0-|
                                        .  .  .  . . . . . . . . . .

B|-------------------------------------------------------------------|
F|-------------------------------------------------------------------|
D|-------------------------------------------------------------------|
A|--2----4-------5----4-------2----4---------------------------------|
E|--2----4-------5----4-------2----4---------------------------------|
B|--0----2---0---3----2---0---0----2----0--0--0--0-0-0-3-5-6-5-3-0-0-|
                                        .  .  .  . . . . . . . . . .

B|-------------------------------------------------------------------|
F|-------------------------------------------------------------------|
D|-------------------------------------------------------------------|
A|--2----4-------5----4-------2----4---------------------------------|
E|--2----4-------5----4-------2----4---------------------------------|
B|--0----2---0---3----2---0---0----2----0--0--0--0-0-0-3-5-6-5-3-0-0-|
                                        .  .  .  . . . . . . . . . .

B|-------------------------------------------------------------------|
F|-------------------------------------------------------------------|
D|-------------------------------------------------------------------|
A|--2----4-------5----4-------2----4---------------------------------|
E|--2----4-------5----4-------2----4---------------------------------|
B|--0----2---0---3----2---0---0----2----0--0--0--0-0-0-3-5-6-5-3-0-0-|
                                        .  .  .  . . . . . . . . . .

B|-------------------------------------------------------------------|
F|-------------------------------------------------------------------|
D|-------------------------------------------------------------------|
A|--2----4-------5----4-------2----4---------------------------------|
E|--2----4-------5----4-------2----4---------------------------------|
B|--0----2---0---3----2---0---0----2----0--0--0--0-0-0-3-5-6-5-3-0-0-|
                                        .  .  .  . . . . . . . . . .

B|-------------------------------------------------------------------|
F|-------------------------------------------------------------------|
D|-------------------------------------------------------------------|
A|--2----4-------5----4-------2----4---------------------------------|
E|--2----4-------5----4-------2----4---------------------------------|
B|--0----2---0---3----2---0---0----2----0--0--0--0-0-0-3-5-6-5-3-0-0-|
                                        .  .  .  . . . . . . . . . .

B|-----10--9-----10--9-----10--9-----10--9-----10--9-----------------|
F|--7---------7---------7---------7---------7------------------------|
D|-------------------------------------------------------------------|
A|-------------------------------------------------------------------|
E|-------------------------------------------------------------------|
B|-------------------------------------------------------------------|
 |
B|-------------------------------------------------------------------|
F|-------------------------------------------------------------------|
D|-------------------------------------------------------------------|
A|--2----4-------5----4-------2----4---------------------------------|
E|--2----4-------5----4-------2----4---------------------------------|
B|--0----2---0---3----2---0---0----2---------------------------------|

B|-----10--9-----10--9-----10--9-----10--9-----10--9-----------------|
F|--7---------7---------7---------7---------7------------------------|
D|-------------------------------------------------------------------|
A|-------------------------------------------------------------------|
E|-------------------------------------------------------------------|
B|-------------------------------------------------------------------|
 |
B|-------------------------------------------------------------------|
F|-------------------------------------------------------------------|
D|-------------------------------------------------------------------|
A|--2----4-------5----4-------2----4---------------------------------|
E|--2----4-------5----4-------2----4---------------------------------|
B|--0----2---0---3----2---0---0----2----------------0-3-5-6-5-3-0-0--|

B|-----10--9-----10--9-----10--9-----10--9-----10--9-----------------|
F|--7---------7---------7---------7---------7------------------------|
D|-------------------------------------------------------------------|
A|-------------------------------------------------------------------|
E|-------------------------------------------------------------------|
B|-------------------------------------------------------------------|
 |
B|-------------------------------------------------------------------|
F|-------------------------------------------------------------------|
D|-------------------------------------------------------------------|
A|--2----4-------5----4-------2----4---------------------------------|
E|--2----4-------5----4-------2----4---------------------------------|
B|--0----2---0---3----2---0---0----2---------------------------------|

B|-----10--9-----10--9-----10--9-----10--9-----10--9-----------------|
F|--7---------7---------7---------7---------7------------------------|
D|-------------------------------------------------------------------|
A|-------------------------------------------------------------------|
E|-------------------------------------------------------------------|
B|-------------------------------------------------------------------|
 |
B|-------------------------------------------------------------------|
F|-------------------------------------------------------------------|
D|-------------------------------------------------------------------|
A|--2----4-------5----4-------2----4---------------------------------|
E|--2----4-------5----4-------2----4---------------------------------|
B|--0----2---0---3----2---0---0----2----0--0--0--0-0-0-3-5-6-5-3-0-0-|
                                        .  .  .  . . . . . . . . . .

B|-------------------------------5--5--7------------------------------|
F|-5--7--5--7----5--7----7----7-----------5--7-----7----5--7-------7--|
D|--------------------------------------------------------------------|
A|--------------------------------------------------------------------|
E|--------------------------------------------------------------------|
B|--------------------------------------------------------------------|
 |
B|--------------------------------------------------------------------|
F|--------------------------------------------------------------------|
D|-4--------4-------4------------4--------4--------4-------4----------|
A|-4--4--4--4----4--4----4----4--4--4--4--4--4--4--4----4--4--4----4--|
E|-2--2--2--2----2--2----2----2--2--2--2--0--0--0--0----0--0--0----0--|
B|--------------------------------------------------------------------|

B|-5--5--7------------------------------------------------------------|
F|----------5--7--7--7----5--7----7----5--5---------------------------|
D|---------------------------------------------7--7--7-----6----4---6-|
A|--------------------------------------------------------------------|
E|--------------------------------------------------------------------|
B|--------------------------------------------------------------------|
 |
B|--------------------------------------------------------------------|
F|---------------------------------------------------2-----2----2---2-|
D|-4--------0--------0-------0------------0----------2-----2----2---2-|
A|-4--4-----0--------0-------0------------0----------2-----2----2---2-|
E|-0--0--0--2--2--2--2----2--2----2----2--2---------------------------|
B|----------3--3--3--3----3--3----3----3--3----0--0----2-2----2-------|

B|--------------|
F|---------5----|
D|----7---------|
A|--------------|
E|--------------|
B|--------------|
 |
B|--------------|
F|-2--3---------|
D|-2--2----4----|
A|-2--2----2----|
E|--------------|
B|------------3-|

B|-------------------------------5--5--7------------------------------|
F|-5--7--5--7----5--7----7----7-----------5--7-----7----5--7-------7--|
D|--------------------------------------------------------------------|
A|--------------------------------------------------------------------|
E|--------------------------------------------------------------------|
B|--------------------------------------------------------------------|
 |
B|--------------------------------------------------------------------|
F|--------------------------------------------------------------------|
D|-4--------4-------4------------4--------4--------4-------4----------|
A|-4--4--4--4----4--4----4----4--4--4--4--4--4--4--4----4--4--4----4--|
E|-2--2--2--2----2--2----2----2--2--2--2--0--0--0--0----0--0--0----0--|
B|--------------------------------------------------------------------|

B|-5--5--7------------------------------------------------------------|
F|----------5--7--7--7----5--7----7----5--5---------------------------|
D|---------------------------------------------7--7--7-----6----4---6-|
A|--------------------------------------------------------------------|
E|--------------------------------------------------------------------|
B|--------------------------------------------------------------------|
 |
B|--------------------------------------------------------------------|
F|---------------------------------------------------2-----2----2---2-|
D|-4--------0--------0-------0------------0----------2-----2----2---2-|
A|-4--4-----0--------0-------0------------0----------2-----2----2---2-|
E|-0--0--0--2--2--2--2----2--2----2----2--2---------------------------|
B|----------3--3--3--3----3--3----3----3--3----0--0----2-2----2-------|

B|--------------|
F|---------5----|
D|----7---------|
A|--------------|
E|--------------|
B|--------------|
 |
B|--------------|
F|-2--3---------|
D|-2--2----4----|
A|-2--2----2----|
E|--------------|
B|------------3-|

B|-------------------------------------------------------------------|
F|-------------------------------------------------------------------|
D|-------------------------------------------------------------------|
A|--2----4-------5----4-------2----4---------------------------------|
E|--2----4-------5----4-------2----4---------------------------------|
B|--0----2---0---3----2---0---0----2----0--0--0--0-0-0-3-5-6-5-3-0-0-|
                                        .  .  .  . . . . . . . . . .

B|-------------------------------------------------------------------|
F|-------------------------------------------------------------------|
D|-------------------------------------------------------------------|
A|--2----4-------5----4-------2----4---------------------------------|
E|--2----4-------5----4-------2----4---------------------------------|
B|--0----2---0---3----2---0---0----2----0--0--0--0-0-0-3-5-6-5-3-0-0-|
                                        .  .  .  . . . . . . . . . .

B|-------------------------------------------------------------------|
F|-------------------------------------------------------------------|
D|-------------------------------------------------------------------|
A|--2----4-------5----4-------2----4---------------------------------|
E|--2----4-------5----4-------2----4---------------------------------|
B|--0----2---0---3----2---0---0----2----0--0--0--0-0-0-3-5-6-5-3-0-0-|
                                        .  .  .  . . . . . . . . . .

B|-------------------------------------------------------------------|
F|-------------------------------------------------------------------|
D|-------------------------------------------------------------------|
A|--2----4-------5----4-------2----4---------------------------------|
E|--2----4-------5----4-------2----4---------------------------------|
B|--0----2---0---3----2---0---0----2----0--0--0--0-0-0-3-5-6-5-3-0-0-|
                                        .  .  .  . . . . . . . . . .

B|-----10--9-----10--9-----10--9-----10--9-----10--9-----------------|
F|--7---------7---------7---------7---------7------------------------|
D|-------------------------------------------------------------------|
A|-------------------------------------------------------------------|
E|-------------------------------------------------------------------|
B|-------------------------------------------------------------------|
 |
B|-------------------------------------------------------------------|
F|-------------------------------------------------------------------|
D|-------------------------------------------------------------------|
A|--2----4-------5----4-------2----4---------------------------------|
E|--2----4-------5----4-------2----4---------------------------------|
B|--0----2---0---3----2---0---0----2---------------------------------|

B|-----10--9-----10--9-----10--9-----10--9-----10--9-----------------|
F|--7---------7---------7---------7---------7------------------------|
D|-------------------------------------------------------------------|
A|-------------------------------------------------------------------|
E|-------------------------------------------------------------------|
B|-------------------------------------------------------------------|
 |
B|-------------------------------------------------------------------|
F|-------------------------------------------------------------------|
D|-------------------------------------------------------------------|
A|--2----4-------5----4-------2----4---------------------------------|
E|--2----4-------5----4-------2----4---------------------------------|
B|--0----2---0---3----2---0---0----2----------------0-3-5-6-5-3-0-0--|

B|-----10--9-----10--9-----10--9-----10--9-----10--9-----------------|
F|--7---------7---------7---------7---------7------------------------|
D|-------------------------------------------------------------------|
A|-------------------------------------------------------------------|
E|-------------------------------------------------------------------|
B|-------------------------------------------------------------------|
 |
B|-------------------------------------------------------------------|
F|-------------------------------------------------------------------|
D|-------------------------------------------------------------------|
A|--2----4-------5----4-------2----4---------------------------------|
E|--2----4-------5----4-------2----4---------------------------------|
B|--0----2---0---3----2---0---0----2---------------------------------|

B|-----10--9-----10--9-----10--9-----10--9-----10--9-----------------|
F|--7---------7---------7---------7---------7------------------------|
D|-------------------------------------------------------------------|
A|-------------------------------------------------------------------|
E|-------------------------------------------------------------------|
B|-------------------------------------------------------------------|
 |
B|-------------------------------------------------------------------|
F|-------------------------------------------------------------------|
D|-------------------------------------------------------------------|
A|--2----4-------5----4-------2----4---------------------------------|
E|--2----4-------5----4-------2----4---------------------------------|
B|--0----2---0---3----2---0---0----2----0--0--0--0-0-0-3-5-6-5-3-0-0-|
                                        .  .  .  . . . . . . . . . .

B|-------------------------------5--5--7------------------------------|
F|-5--7--5--7----5--7----7----7-----------5--7-----7----5--7-------7--|
D|--------------------------------------------------------------------|
A|--------------------------------------------------------------------|
E|--------------------------------------------------------------------|
B|--------------------------------------------------------------------|
 |
B|--------------------------------------------------------------------|
F|--------------------------------------------------------------------|
D|-4--------4-------4------------4--------4--------4-------4----------|
A|-4--4--4--4----4--4----4----4--4--4--4--4--4--4--4----4--4--4----4--|
E|-2--2--2--2----2--2----2----2--2--2--2--0--0--0--0----0--0--0----0--|
B|--------------------------------------------------------------------|

B|-5--5--7------------------------------------------------------------|
F|----------5--7--7--7----5--7----7----5--5---------------------------|
D|---------------------------------------------7--7--7-----6----4---6-|
A|--------------------------------------------------------------------|
E|--------------------------------------------------------------------|
B|--------------------------------------------------------------------|
 |
B|--------------------------------------------------------------------|
F|---------------------------------------------------2-----2----2---2-|
D|-4--------0--------0-------0------------0----------2-----2----2---2-|
A|-4--4-----0--------0-------0------------0----------2-----2----2---2-|
E|-0--0--0--2--2--2--2----2--2----2----2--2---------------------------|
B|----------3--3--3--3----3--3----3----3--3----0--0----2-2----2-------|

B|--------------|
F|---------5----|
D|----7---------|
A|--------------|
E|--------------|
B|--------------|
 |
B|--------------|
F|-2--3---------|
D|-2--2----4----|
A|-2--2----2----|
E|--------------|
B|------------3-|

B|-------------------------------5--5--7------------------------------|
F|-5--7--5--7----5--7----7----7-----------5--7-----7----5--7-------7--|
D|--------------------------------------------------------------------|
A|--------------------------------------------------------------------|
E|--------------------------------------------------------------------|
B|--------------------------------------------------------------------|
 |
B|--------------------------------------------------------------------|
F|--------------------------------------------------------------------|
D|-4--------4-------4------------4--------4--------4-------4----------|
A|-4--4--4--4----4--4----4----4--4--4--4--4--4--4--4----4--4--4----4--|
E|-2--2--2--2----2--2----2----2--2--2--2--0--0--0--0----0--0--0----0--|
B|--------------------------------------------------------------------|

B|-5--5--7------------------------------------------------------------|
F|----------5--7--7--7----5--7----7----5--5---------------------------|
D|---------------------------------------------7--7--7-----6----4---6-|
A|--------------------------------------------------------------------|
E|--------------------------------------------------------------------|
B|--------------------------------------------------------------------|
 |
B|--------------------------------------------------------------------|
F|---------------------------------------------------2-----2----2---2-|
D|-4--------0--------0-------0------------0----------2-----2----2---2-|
A|-4--4-----0--------0-------0------------0----------2-----2----2---2-|
E|-0--0--0--2--2--2--2----2--2----2----2--2---------------------------|
B|----------3--3--3--3----3--3----3----3--3----0--0----2-2----2-------|

B|--------------|
F|---------5----|
D|----7---------|
A|--------------|
E|--------------|
B|--------------|
 |
B|--------------|
F|-2--3---------|
D|-2--2----4----|
A|-2--2----2----|
E|--------------|
B|------------3-|

B|-----------------------------------------------------------|
F|-----------------------------------------------------------|
D|-----------------------------------------------------------|
A|-----------------------------------------------------------|
E|-2-4-5-2-4-5-2-4-5-2-4--------2-4-5-2-4-5-2-4--5-2-4-5-2-4-|
B|-0-2-3-0-2-3-0-2-3-0-2--------0-2-3-0-2-3-0-2--3-0-2-3-0-2-|
   . . . . . . . . . . .        . . . . . . . .  . . . . . .

B|-------------------------------------------------------------------------|
F|-------------------------------------------------------------------------|
D|-------------------------------------------------------------------------|
A|-------------------------------------------------------------------------|
E|-2-4-5-2-4-5-2-4-5-2-4-------2-4-5-2-4-5-2-4-5-2-4-2-4-5-2-4-5-2-4-5-2-4-|
B|-0-2-3-0-2-3-0-2-3-0-2-------0-2-3-0-2-3-0-2-3-0-2-0-2-3-0-2-3-0-2-3-0-2-|
   . . . . . . . . . . .       . . . . . . . . . . . . . . . . . . . . . . 

B|-----------------------------------------------------------|
F|-----------------------------------------------------------|
D|-----------------------------------------------------------|
A|-----------------------------------------------------------|
E|-2-4-5-2-4-5-2-4-5-2-4--------2-4-5-2-4-5-2-4--5-2-4-5-2-4-|
B|-0-2-3-0-2-3-0-2-3-0-2--------0-2-3-0-2-3-0-2--3-0-2-3-0-2-|
   . . . . . . . . . . .        . . . . . . . .  . . . . . .

B|-------------------------------------------------------------------------|
F|-------------------------------------------------------------------------|
D|-------------------------------------------------------------------------|
A|-------------------------------------------------------------------------|
E|-2-4-5-2-4-5-2-4-5-2-4-------2-4-5-2-4-5-2-4-5-2-4-2-4-5-2-4-5-2-4-5-2-4-|
B|-0-2-3-0-2-3-0-2-3-0-2-------0-2-3-0-2-3-0-2-3-0-2-0-2-3-0-2-3-0-2-3-0-2-|
   . . . . . . . . . . .       . . . . . . . . . . . . . . . . . . . . . . 

B|-----10--9-----10--9-----10--9-----10--9-----10--9-----------------|
F|--7---------7---------7---------7---------7------------------------|
D|-------------------------------------------------------------------|
A|-------------------------------------------------------------------|
E|-------------------------------------------------------------------|
B|-------------------------------------------------------------------|

B|-------------------------------5--5--7------------------------------|
F|-5--7--5--7----5--7----7----7-----------5--7-----7----5--7-------7--|
D|--------------------------------------------------------------------|
A|--------------------------------------------------------------------|
E|--------------------------------------------------------------------|
B|--------------------------------------------------------------------|
 |
B|--------------------------------------------------------------------|
F|--------------------------------------------------------------------|
D|-4--------4-------4------------4--------4--------4-------4----------|
A|-4--4--4--4----4--4----4----4--4--4--4--4--4--4--4----4--4--4----4--|
E|-2--2--2--2----2--2----2----2--2--2--2--0--0--0--0----0--0--0----0--|
B|--------------------------------------------------------------------|

B|-5--5--7------------------------------------------------------------|
F|----------5--7--7--7----5--7----7----5--5---------------------------|
D|---------------------------------------------7--7--7-----6----4---6-|
A|--------------------------------------------------------------------|
E|--------------------------------------------------------------------|
B|--------------------------------------------------------------------|
 |
B|--------------------------------------------------------------------|
F|---------------------------------------------------2-----2----2---2-|
D|-4--------0--------0-------0------------0----------2-----2----2---2-|
A|-4--4-----0--------0-------0------------0----------2-----2----2---2-|
E|-0--0--0--2--2--2--2----2--2----2----2--2---------------------------|
B|----------3--3--3--3----3--3----3----3--3----0--0----2-2----2-------|

B|--------------|
F|---------5----|
D|----7---------|
A|--------------|
E|--------------|
B|--------------|
 |
B|--------------|
F|-2--3---------|
D|-2--2----4----|
A|-2--2----2----|
E|--------------|
B|------------3-|

B|-------------------------------5--5--7------------------------------|
F|-5--7--5--7----5--7----7----7-----------5--7-----7----5--7-------7--|
D|--------------------------------------------------------------------|
A|--------------------------------------------------------------------|
E|--------------------------------------------------------------------|
B|--------------------------------------------------------------------|
 |
B|--------------------------------------------------------------------|
F|--------------------------------------------------------------------|
D|-4--------4-------4------------4--------4--------4-------4----------|
A|-4--4--4--4----4--4----4----4--4--4--4--4--4--4--4----4--4--4----4--|
E|-2--2--2--2----2--2----2----2--2--2--2--0--0--0--0----0--0--0----0--|
B|--------------------------------------------------------------------|

B|-5--5--7------------------------------------------------------------|
F|----------5--7--7--7----5--7----7----5--5---------------------------|
D|---------------------------------------------7--7--7-----6----4---6-|
A|--------------------------------------------------------------------|
E|--------------------------------------------------------------------|
B|--------------------------------------------------------------------|
 |
B|--------------------------------------------------------------------|
F|---------------------------------------------------2-----2----2---2-|
D|-4--------0--------0-------0------------0----------2-----2----2---2-|
A|-4--4-----0--------0-------0------------0----------2-----2----2---2-|
E|-0--0--0--2--2--2--2----2--2----2----2--2---------------------------|
B|----------3--3--3--3----3--3----3----3--3----0--0----2-2----2-------|

B|--------------|
F|---------5----|
D|----7---------|
A|--------------|
E|--------------|
B|--------------|
 |
B|--------------|
F|-2--3---------|
D|-2--2----4----|
A|-2--2----2----|
E|--------------|
B|------------3-|

B|-------------------------------------------------------------------|
F|-------------------------------------------------------------------|
D|-------------------------------------------------------------------|
A|--2----4-------5----4-------2----4---------------------------------|
E|--2----4-------5----4-------2----4---------------------------------|
B|--0----2---0---3----2---0---0----2----0--0--0--0-0-0-3-5-6-5-3-0-0-|
                                        .  .  .  . . . . . . . . . .

B|-------------------------------------------------------------------|
F|-------------------------------------------------------------------|
D|-------------------------------------------------------------------|
A|--2----4-------5----4-------2----4---------------------------------|
E|--2----4-------5----4-------2----4---------------------------------|
B|--0----2---0---3----2---0---0----2----0--0--0--0-0-0-3-5-6-5-3-0-0-|
                                        .  .  .  . . . . . . . . . .

B|-------------------------------------------------------------------|
F|-------------------------------------------------------------------|
D|-------------------------------------------------------------------|
A|--2----4-------5----4-------2----4---------------------------------|
E|--2----4-------5----4-------2----4---------------------------------|
B|--0----2---0---3----2---0---0----2----0--0--0--0-0-0-3-5-6-5-3-0-0-|
                                        .  .  .  . . . . . . . . . .

B|-------------------------------------------------------------------|
F|-------------------------------------------------------------------|
D|-------------------------------------------------------------------|
A|--2----4-------5----4-------2----4---------------------------------|
E|--2----4-------5----4-------2----4---------------------------------|
B|--0----2---0---3----2---0---0----2----0--0--0--0-0-0-3-5-6-5-3-0-0-|
                                        .  .  .  . . . . . . . . . .

B|-----10--9-----10--9-----10--9-----10--9-----10--9-----------------|
F|--7---------7---------7---------7---------7------------------------|
D|-------------------------------------------------------------------|
A|-------------------------------------------------------------------|
E|-------------------------------------------------------------------|
B|-------------------------------------------------------------------|
 |
B|-------------------------------------------------------------------|
F|-------------------------------------------------------------------|
D|-------------------------------------------------------------------|
A|--2----4-------5----4-------2----4---------------------------------|
E|--2----4-------5----4-------2----4---------------------------------|
B|--0----2---0---3----2---0---0----2---------------------------------|

B|-----10--9-----10--9-----10--9-----10--9-----10--9-----------------|
F|--7---------7---------7---------7---------7------------------------|
D|-------------------------------------------------------------------|
A|-------------------------------------------------------------------|
E|-------------------------------------------------------------------|
B|-------------------------------------------------------------------|
 |
B|-------------------------------------------------------------------|
F|-------------------------------------------------------------------|
D|-------------------------------------------------------------------|
A|--2----4-------5----4-------2----4---------------------------------|
E|--2----4-------5----4-------2----4---------------------------------|
B|--0----2---0---3----2---0---0----2----------------0-3-5-6-5-3-0-0--|

B|-----10--9-----10--9-----10--9-----10--9-----10--9-----------------|
F|--7---------7---------7---------7---------7------------------------|
D|-------------------------------------------------------------------|
A|-------------------------------------------------------------------|
E|-------------------------------------------------------------------|
B|-------------------------------------------------------------------|
 |
B|-------------------------------------------------------------------|
F|-------------------------------------------------------------------|
D|-------------------------------------------------------------------|
A|--2----4-------5----4-------2----4---------------------------------|
E|--2----4-------5----4-------2----4---------------------------------|
B|--0----2---0---3----2---0---0----2---------------------------------|

B|-----10--9-----10--9-----10--9-----10--9-----10--9-----------------|
F|--7---------7---------7---------7---------7------------------------|
D|-------------------------------------------------------------------|
A|-------------------------------------------------------------------|
E|-------------------------------------------------------------------|
B|-------------------------------------------------------------------|
 |
B|-------------------------------------------------------------------|
F|-------------------------------------------------------------------|
D|-------------------------------------------------------------------|
A|--2----4-------5----4-------2----4---------------------------------|
E|--2----4-------5----4-------2----4---------------------------------|
B|--0----2---0---3----2---0---0----2----0--0--0--0-0-0-3-5-6-5-3-0-0-|
                                        .  .  .  . . . . . . . . . .

B|-----------------------------------|
F|-----------------------------------|
D|-----------------------------------|
A|--2----4-------5----4-------2----4-|
E|--2----4-------5----4-------2----4-|
B|--0----2---0---3----2---0---0----2-|
            
Submit corrections


        No One Gets Left Behind lessons Hard to play? Try these video lessons and learn fast No One Gets Left Behind lessons
        
↑ Back to top | Tablatures and chords for acoustic guitar and electric guitar, ukulele, drums are parodies/interpretations of the original songs. You may use it for private study, scholarship, research or language learning purposes only