» » »

Five Finger Death Punch - Mine End This Way Tabs

Artists:  A B C D E F G H I J K L M N O P Q R S T U V W X Y Z # 

Mine End This Way Tabs

(ver. 2) Click to play this song!
Five Finger Death Punch
 Rating:
4/5 (4 votes)

 Mine End This Way lessons Tabs too difficult? Try these video lessons and learn fast
 
                (Intro)
-------------------------------------------------------------------------------
                M.I.N.E (End This Way) Intro - Five Finger Death Punch
-------------------------------------------------------------------------------



Band: Five Finger Death Punch
Tuning: B Standard (B E A D F# B)



INTRO:
B |---------7-----------------5-----------------3-----------------2----------|
F#|-------------8---------7-------7---------5-------5---------3-------3------|
D |--- -9-----9---9-----9---9---9---9-----7---7---7---7-----5---3---5---5----|
A |---9---9------------------------------------------------------------------|
E |--------------------------------------------------------------------------|
B |-0-----------------0-----------------0----------------0-------------------|


B |---------3---------------------------------2--------0------0--------------|
F#|-----3-------3--------------7-----------------0-------0----0--------------|
D |---0---0---0---0--------7-------7--------4-----------------4--------------|
A |----------------------7---7---7---7---------------------------------------|
E |-3-----------------5------------------------------------------------------|
B |--------------------------------------0-----------------0-----------------|


VERSE:
B |---------7-----------------5-----------------3-----------------2----------|
F#|-------------8---------7-------7---------5-------5---------3-------3------|
D |-----9-----9---9-----9---9---9---9-----7---7---7---7-----5---3---5---5----|
A |---9---9------------------------------------------------------------------|
E |--------------------------------------------------------------------------|
B |-0-----------------0-----------------0----------------0-------------------|
    Everybody hurts...        Everybody bends to fill a need...

 
D |---------3-------------------2-------------2-------2-------0--------------|
F#|-----3-------3----------3--------2-----------0-------0-----0--------------|
D |---0---0---0---0------2---2----3---3-----4--------------------------------| 
A |-------------------0------------------------------------------------------|
E |-3------------------------------------------------------------------------|
B |--------------------------------------0-----------------0-----------------|
    Everybody's born...      And I'm not alone...


D |---------7-----------------5-----------------3-----------------2----------|
F#|-------------8---------7-------7---------5-------5---------3-------3------|
D |-----9-----9---9-----9---9---9---9-----7---7---7---7-----5---3---5---5----|
A |---9---9------------------------------------------------------------------|
E |--------------------------------------------------------------------------|
B |-0-----------------0-----------------0----------------0-------------------|
    Everybody cries...        Everybody wants to feel they're free...


D |---------3-------------------2-------------2-------2-------0--------------|
F#|-----3-------3----------3--------2-----------0-------0-----0--------------|
D |---0---0---0---0------2---2----3---3-----4--------------------------------| 
A |-------------------0------------------------------------------------------|
E |-3------------------------------------------------------------------------|
B |--------------------------------------0-----------------0-----------------|
    Deep inside I know...   A life of my own...


D |-------------3--------------3-------3---------0---------------------------|
F#|---------3-------3--------3-------3---------------1------2----------------|
D |-------0---0---0---0----0-------0---------2-----2---2----2----------------|
A |------------------------------0---------2---2---------2--0----------------|
E |-0-2-3----------------3--------------0------------------------------------|
B |--------------------------------------------------------------------------|
  It could have been much worse, but it should have been better...


FEEL FREE TO RATE AND COMMENT, THANKS.


************************************

| /   slide up
| \   slide down
| h   hammer-on
| p   pull-off
| ~   vibrato
| +   harmonic
| x   Mute note
| b   Bend
| pb  Pre-bend
| br  Bend release
| pbr Pre-bend release
| brb Bend release bend

************************************
            
Submit corrections


        Mine End This Way lessons Hard to play? Try these video lessons and learn fast Mine End This Way lessons
        
↑ Back to top | Tablatures and chords for acoustic guitar and electric guitar, ukulele, drums are parodies/interpretations of the original songs. You may use it for private study, scholarship, research or language learning purposes only