» » »

Five Finger Death Punch - Battle Born Tabs

Artists:  A B C D E F G H I J K L M N O P Q R S T U V W X Y Z # 

Battle Born Tabs

(ver. 2) Click to play this song!
Five Finger Death Punch
 Rating:
3.4/5 (24 votes)

 Battle Born lessons Tabs too difficult? Try these video lessons and learn fast
 
                Intro: e|-------------------------------------------------------|
       B|-------------------------------------------------------|
       G|-------------------------------------------------------|
       D|-2~-----2-----2-----2-----2-----6-----6-----6----------|
       A|-2~--2-2-2-2-2-2-2-2-2-2-2-2-6-6-6-6-6-6-6-6-6-6-6-6-4-|
       E|-0~-0-0---0-0---0-0---0-0---4-4---4-4---4-4---4-4-4-2--|

       e|----------------------------------------------------|
       B|----------------------------------------------------|
       G|----------------------------------------------------|
       D|-----2-----2-----2-----2-----6-----6-----6----------|
       A|--2-2-2-2-2-2-2-2-2-2-2-2-6-6-6-6-6-6-6-6-6-6-6-6-4-|
       E|-0-0---0-0---0-0---0-0---4-4---4-4---4-4---4-4-4-2--|

Verse: e|----------------------------------------------------|
       B|----------------------------------------------------|
       G|----------------------------------------------------|
       D|-----2-----2-----2-----2-----6-----6-----6----------|
       A|--2-2-2-2-2-2-2-2-2-2-2-2-6-6-6-6-6-6-6-6-6-6-6-6-4-|
       E|-0-0---0-0---0-0---0-0---4-4---4-4---4-4---4-4-4-2--|

          Once upon a time, I swore I had a heart. Long before the world I know tore it all apart.

       e|-----------------------------------------------|
       B|-----------------------------------------------|
       G|-----------------------------------------------|
       D|-----2-----2-----2-----2-----6-----6--4-44-44~-|
       A|--2-2-2-2-2-2-2-2-2-2-2-2-6-6-6-6-6-6-4-44-44~-|
       E|-0-0---0-0---0-0---0-0---4-4---4-4----2-22-22~-|

          Once upon a time, there was apart of me I shared years before they took away the part of me that cared

Chorus: e|---------------------------------------------------------------|
        B|---------------------------------------------------------------|
        G|-------------------------------------------------333333-444666-|
        D|-2-2-2-2-2-------4-4-4-4-4-------6-6-6-6-6-------333333-444666-|
        A|-2-2-2-2-2-------4-4-4-4-4-------6-6-6-6-6-------111111-222444-|
        E|-0-0-0-0-0-4p2p0-2-2-2-2-2-5p4p2-4-4-4-4-4-7p6p4---------------|

           I've been a thousand places, and shook a million hands.

           I don't know where I'm going, but I know just where I've been.

        e|----------------------------------------------------------|
        B|----------------------------------------------------------|
        G|------------------------------------333444666444333-------|
        D|-2-2-2-2-2-------4-4-4-4-4-------666333444666444333666444-|
        A|-2-2-2-2-2-------4-4-4-4-4-------666111222444222111666444-|
        E|-0-0-0-0-0-4p2p0-2-2-2-2-2-5p4p2-444---------------444222-|

           I've flown a million miles, and I rode so many more.

           Everyday a castaway, a vagabond battle

Pre-Verse: e|----------------------------------------------------|
           B|----------------------------------------------------|
           G|----------------------------------------------------|
           D|-----2-----2-----2-----2-----6-----6-----6----------|
           A|--2-2-2-2-2-2-2-2-2-2-2-2-6-6-6-6-6-6-6-6-6-6-6-6-4-|
           E|-0-0---0-0---0-0---0-0---4-4---4-4---4-4---4-4-4-2--|

              born! (I'm battle born)

Verse: e|----------------------------------------------------|
       B|----------------------------------------------------|
       G|----------------------------------------------------|
       D|-----2-----2-----2-----2-----6-----6-----6----------|
       A|--2-2-2-2-2-2-2-2-2-2-2-2-6-6-6-6-6-6-6-6-6-6-6-6-4-|
       E|-0-0---0-0---0-0---0-0---4-4---4-4---4-4---4-4-4-2--|

       Once upon a time, I had an open point of view.

       But that was just so long ago before I had a clue.

       e|-----------------------------------------------|
       B|-----------------------------------------------|
       G|-----------------------------------------------|
       D|-----2-----2-----2-----2-----6-----6--4-44-44~-|
       A|--2-2-2-2-2-2-2-2-2-2-2-2-6-6-6-6-6-6-4-44-44~-|
       E|-0-0---0-0---0-0---0-0---4-4---4-4----2-22-22~-|

          Was there such a time where I didn't stand alone?

          Was there ever a time, and how would I have known?

Chorus: e|---------------------------------------------------------------|
        B|---------------------------------------------------------------|
        G|-------------------------------------------------333333-444666-|
        D|-2-2-2-2-2-------4-4-4-4-4-------6-6-6-6-6-------333333-444666-|
        A|-2-2-2-2-2-------4-4-4-4-4-------6-6-6-6-6-------111111-222444-|
        E|-0-0-0-0-0-4p2p0-2-2-2-2-2-5p4p2-4-4-4-4-4-7p6p4---------------|

           I've been a thousand places, and shook a million hands.

           I don't know where I'm going, but I know just where I've been.

        e|----------------------------------------------------------|
        B|----------------------------------------------------------|
        G|------------------------------------333444666444333-------|
        D|-2-2-2-2-2-------4-4-4-4-4-------666333444666444333666444-|
        A|-2-2-2-2-2-------4-4-4-4-4-------666111222444222111666444-|
        E|-0-0-0-0-0-4p2p0-2-2-2-2-2-5p4p2-444---------------444222-|

           I've flown a million miles, and I rode so many more.

           Everyday a castaway, a vagabond battle.

Bridge: e|--------------------------------------------------|
        B|--------------------------------------------------|
        G|--------------------------------------------------|
        D|-----7-----7-----7-----7--6-66-66-6-6-4-4-4-4-4-4-|
        A|--7-7-7-7-7-7-7-7-7-7-7-7-6-66-66-6-6-4-4-4-4-4-4-|
        E|-5-5---5-5---5-5---5-5----4-44-44-4-4-2-2-2-2-2-2-|

           *Attention all passengers. Flight 555 now departing from Las Vegas to London.*

           *Please have your passports and boarding passes ready.*

Solo: e|-11~-14p11~---9-18~-18h19p18-14-12-11-14~-------11p99~-----------------------------------------|
      B|------------11----------------------------11h12----------11h12p11h12p11~-11h12p11(11)-77-55-44-|
      G|-------------------------------------------------------11--------------------------------------|
      D|-----------------------------------------------------------------------------------------------|
      A|-----------------------------------------------------------------------------------------------|
      E|-----------------------------------------------------------------------------------------------|

      e|---------------------11-----------------------------11---------|
      B|-11h12-14p12p11-11h12--12p11h12-11h12-14p12p11-11h12--12p11h12-|
      G|---------------------------------------------------------------|
      D|---------------------------------------------------------------|
      A|---------------------------------------------------------------|
      E|---------------------------------------------------------------|

      e|-6h7h9p7p6h7h9-7h9h11p9p7h9h11-9h11h12p9h11h12p9h11h12p9h11h12p9h11h12p9h11h12p9h11h12h14~-|
      B|-------------------------------------------------------------------------------------------|
      G|-------------------------------------------------------------------------------------------|
      D|-------------------------------------------------------------------------------------------|
      A|-------------------------------------------------------------------------------------------|
      E|-------------------------------------------------------------------------------------------|

Chorus: e|----x----x----x--------------------------------------------------------------|
        B|----x----x----x--------------------------------------------------------------|
        G|----x----x----x-333333444666-------------------------------------------------|
        D|-2~-x-4~-x-6~-x-333333444666-2-2-2-2-2~-4-4-4-4-4~-6-6-6-6-6~-8-88-8-8-9-9-9-|
        A|-2~-x-4~-x-6~-x-111111222444-2-2-2-2-2~-4-4-4-4-4~-6-6-6-6-6~-8-88-8-8-9-9-9-|
        E|-0~-x-2~-x-4~-x--------------0-0-0-0-0~-2-2-2-2-2~-4-4-4-4-4~-6-66-6-6-7-7-7-|

           I've been a thousand places and shook a million hands.

           I don't know where I'm going, but I know just where I've been.

           I've flown a million miles and I rode so many more.

           Everyday a castaway, a vagabond battle born.

Chorus: e|---------------------------------------------------------------|
        B|---------------------------------------------------------------|
        G|-------------------------------------------------333333-444666-|
        D|-2-2-2-2-2-------4-4-4-4-4-------6-6-6-6-6-------333333-444666-|
        A|-2-2-2-2-2-------4-4-4-4-4-------6-6-6-6-6-------111111-222444-|
        E|-0-0-0-0-0-4p2p0-2-2-2-2-2-5p4p2-4-4-4-4-4-7p6p4---------------|

           I've been a thousand places, and shook a million hands (battle born!)

           I don't know where I'm going, but I know just where I've been (I'm battle born!)

        e|----------------------------------------------------------|
        B|----------------------------------------------------------|
        G|------------------------------------333444666444333-------|
        D|-2-2-2-2-2-------4-4-4-4-4-------666333444666444333666444-|
        A|-2-2-2-2-2-------4-4-4-4-4-------666111222444222111666444-|
        E|-0-0-0-0-0-4p2p0-2-2-2-2-2-5p4p2-444---------------444222-|

           I've flown a million miles, and I rode so many more.

           Everyday a castaway, a vagabond battle.

Chorus: e|---------------------------------------------------------------|
        B|---------------------------------------------------------------|
        G|-------------------------------------------------333333-444666-|
        D|-2-2-2-2-2-------4-4-4-4-4-------6-6-6-6-6-------333333-444666-|
        A|-2-2-2-2-2-------4-4-4-4-4-------6-6-6-6-6-------111111-222444-|
        E|-0-0-0-0-0-4p2p0-2-2-2-2-2-5p4p2-4-4-4-4-4-7p6p4---------------|

                           I'm battle born.                       I'm battle born.

Outro:  e|----------------------------------------------------------|
        B|----------------------------------------------------------|
        G|------------------------------------333444666444333-------|
        D|-2-2-2-2-2-------4-4-4-4-4-------666333444666444333666444-|
        A|-2-2-2-2-2-------4-4-4-4-4-------666111222444222111666444-|
        E|-0-0-0-0-0-4p2p0-2-2-2-2-2-5p4p2-444---------------444222-|

                                           Everyday a castaway, a vagabond battle born.

        e|----------------------|
        B|----------------------|
        G|----333444666444444---|
        D|-6663334446664444442~-|
        A|-6661112224442222222~-|
        E|-444---------------0~-|

                   
Submit corrections


        Battle Born lessons Hard to play? Try these video lessons and learn fast Battle Born lessons
        
↑ Back to top | Tablatures and chords for acoustic guitar and electric guitar, ukulele, drums are parodies/interpretations of the original songs. You may use it for private study, scholarship, research or language learning purposes only