» » »

Fish - State Of Mind Bass

Artists:  A B C D E F G H I J K L M N O P Q R S T U V W X Y Z # 

State Of Mind Bass

(ver. 1) Click to play this song!
Fish
 Rating:
4/5 (4 votes)

 State Of Mind lessons Tabs too difficult? Try these video lessons and learn fast
 
                
This ought to be played on a fretless bass.
Play it very staccato and be sure the harmonics are played correctly.
The harmonic slides are very important!

   Intro & Verse    
                                                        
G||-------------------7-----6-|-------9------------7-----6-|
D||---------------------------|----------------------------|
A||------7--x-------5---x-4---|----7-----x-------5---x-4---|
E||--0--------0---------------|--0---------0---------------|


       h                                                    
-------7\-6/7\6------7-----6-|-------9------------7-----6-|
-----------------------------|----------------------------|
----7--------------5---x-4---|----7-----x-------5---x-4---|
--0--------------------------|--0---------0---------------|


                                             h           
-------------------7-----6-|-----------------7--7\6/12-|
---------------------------|---------------------------|
------7--x-------5---x-4---|------7--x-----------------|
--0--------0---------------|--0--------0---------------|


                                                     
-------------------7-----6-|------------------------|
---------------------------|------------------------|
------7--x-------5---x-4---|------7--x---------x-5--|
--0--------0---------------|--0--------0------------|


                             2x                          
|--------------------7-------||-------------------------|
|*--------------------------*||-------------------------|
|*------7--x-------5---x-4--*||------7--x---------------|
|---0--------0---------------||--0--------0-----0-4-5---|

 Transition
        h   h      h   h                                                           
|-----------7-------------|---------------------------||----------------------|
|*------7--------------7--|--------------------------*||-------9/---11--------|
|*-----------------7------|------7--x----------------*||----------------------|
|---7----------5----------|--0--------0-----0-4-5--x--||--7---------9---------|


                                                      
--------------------------|--------------------------|
--------------------------|--------------------------|
------7--7~---------------|------7--7~---------------|
--0----------0---0-9-10---|--0----------0---0-4-5--4-|

                           Chorus
                                                                              
--------------------------|------4----------4-------|------------------------|
--------------------------|---------------------2---|------2-----------------|
------7--7~---------------|--2-------2--2---------2-|-----------------0--1---|
--0----------0---0-4-5--4-|-------------------------|--0-------0--4----------|


                                                                               
------4----------4-------|------------------------|------6--------------------|
---------------------2---|------2-----------------|-----------6-------6-------|
--2-------2--2---------2-|-----------------0--2---|--4------4---4-------------|
-------------------------|--0-------0--4----------|---------------4------4-7--|


                                                                          
-------------------------|----------------------|----------------7-----6-|
------7------------------|----------------------|------------------------|
-------------------------|--5---5---------------|--------------5---x-4---|
--5------x-5--5-----x-5--|------------2----2----|--0---------------------|


              h  h                                               h            
--------------7--7\6/12-|---------------7-----6-|-------------------------|
------------------------|-----------------------|----------------7\6/7----|
------------------------|-------------5---x-4---|------7--x---------------|
--0---------------------|-----------------------|--0--------0-------------|


                        
----------------------||
----------------------||
------7--x------------||
--0--------0----------||
            
Submit corrections


        State Of Mind lessons Hard to play? Try these video lessons and learn fast State Of Mind lessons
        
↑ Back to top | Tablatures and chords for acoustic guitar and electric guitar, ukulele, drums are parodies/interpretations of the original songs. You may use it for private study, scholarship, research or language learning purposes only