Home » F » Fireflight »

Fireflight - You Decide Tabs

Artists:  A B C D E F G H I J K L M N O P Q R S T U V W X Y Z # 

You Decide Tabs

(ver. 1) Click to play this song!
Fireflight
 Rating:
4/5 (4 votes)
                author's own work and represents their interpretation of the song. You may only use 
file for private study, scholarship, or research. #

Tuning C#; Low to high: (C# G# C# F# A# D#)

This is my first tab. I just saw this band live and got to meet them, they are awesome!
My youth band is going to play this song and there wasn't any tabs for this song anywhere
so I made them. I know the tuning is right because I asked the guitarist myself he said it
was C#. To me everything sounds right, the only thing im not 100 percent sure on is the
bridge, so please give me any commits suggestions.

Note: Some of this isn't writing completly right you will have to listen to the song to
get how many times to strum some parts.

  Gtr 1 and 2  Intro

  PM----|    PM--------|    PM----|      PM--------|
  E E E E Q  E E E E E E Q  E E E E Q    E E E E E E Q
|--------------------------------------|------------------|
|--------------------------------------|------------------|
|--------------------------------------|------------------|
|-6-6-6-6----6-6-6-6-6-6----4-4-4-4----|-4-4-4-4-4-4------|
|-6-6-6-6----6-6-6-6-6-6----4-4-4-4----|-4-4-4-4-4-4------|
|-6-6-6-6----6-6-6-6-6-6----4-4-4-4----|-4-4-4-4-4-4------|


  PM----|    PM----------|    PM------|    PM----------|
  E E E E Q  E E   E E E E Q  E E   E E Q  E E E E   E E
|----------------|----------------|----------------|--------|
|----------------|----------------|----------------|--------|
|----------------|----------------|----------------|--------|
|-6-6-6-6----6-6-|-6-6-6-6----4-4-|-4-4----4-4-4-4-|-4-4----|
|-6-6-6-6----6-6-|-6-6-6-6----4-4-|-4-4----4-4-4-4-|-4-4----|
|-6-6-6-6----6-6-|-6-6-6-6----4-4-|-4-4----4-4-4-4-|-4-4----|


 Gtr 1 and 2 Pre-Verse

E E E E E E E E E E E E E X E E E E E E E E E E E E E
|----------------------------------------------------------|
|----------------------------------------------------------|
|----------------------------------------------------------|
|----------------------------------------------------------|
|-6-6-6-7-7-7-7-7-6-6-7-7-7---2-2-2-4-4-4-4-4-2-2-4-4-4----|
|-6-6-6-----------6-6---------2-2-2-----------2-2----------|

 E E E E E E E E   E E E E E X E E E E   E E E E E
|-----------------|---------------------|--------------|
|-----------------|---------------------|--------------|
|-----------------|---------------------|--------------|
|-----------------|---------------------|--------------|
|-6-6-6-7-7-7-7-7-|-6-6-7-7-7---2-2-2-2-|---2-2-2-2----|
|-6-6-6-----------|-6-6---------2-2-2-2-|---2-2-2-2----|


Gtr 1 and 2  Verse

  PM----|    PM----------|    PM------|    PM----------|
  E E E E Q  E E   E E E E Q  E E   E E Q  E E E E   E E
|----------------|----------------|----------------|--------|
|----------------|----------------|----------------|--------|
|----------------|----------------|----------------|--------|
|-6-6-6-6----6-6-|-6-6-6-6----4-4-|-4-4----4-4-4-4-|-4-4----|
|-6-6-6-6----6-6-|-6-6-6-6----4-4-|-4-4----4-4-4-4-|-4-4----|
|-6-6-6-6----6-6-|-6-6-6-6----4-4-|-4-4----4-4-4-4-|-4-4----|


  PM----|    PM--------|      PM----|      PM--------|
  E E E E Q  E E E E E E   Q  E E E E Q    E E E E E E
|------------------------|---------------|----------------|
|------------------------|---------------|----------------|
|------------------------|---------------|----------------|
|-2-2-2-2----2-2-2-2-2-2-|----4-4-4-4----|-4-4-4-4-4-4----|
|-2-2-2-2----2-2-2-2-2-2-|----4-4-4-4----|-4-4-4-4-4-4----|
|-2-2-2-2----2-2-2-2-2-2-|----4-4-4-4----|-4-4-4-4-4-4----|


  PM----|    PM----------|    PM------|    PM----------|
  E E E E Q  E E   E E E E Q  E E   E E Q  E E E E   E E
|----------------|----------------|----------------|--------|
|----------------|----------------|----------------|--------|
|----------------|----------------|----------------|--------|
|-6-6-6-6----6-6-|-6-6-6-6----4-4-|-4-4----4-4-4-4-|-4-4----|
|-6-6-6-6----6-6-|-6-6-6-6----4-4-|-4-4----4-4-4-4-|-4-4----|
|-6-6-6-6----6-6-|-6-6-6-6----4-4-|-4-4----4-4-4-4-|-4-4----|


  PM----|    PM----------|    PM------|    PM----------|
  E E E E Q  E E   E E E E Q  E E   E E Q  E E E E   E E  E E E
|----------------|----------------|----------------|--------------|
|----------------|----------------|----------------|--------------|
|----------------|----------------|----------------|--------------|
|-2-2-2-2----2-2-|-2-2-2-2----4-4-|-4-4----4-4-4-4-|-4-4--4-4-4---|
|-2-2-2-2----2-2-|-2-2-2-2----4-4-|-4-4----4-4-4-4-|-4-4--4-4-4---|
|-2-2-2-2----2-2-|-2-2-2-2----4-4-|-4-4----4-4-4-4-|-4-4--4-4-4---|


Gtr 1 and 2  Chorus

  Q  Q  Q  Q  Q  Q    Q  Q  Q  Q    Q  Q
|-------------------|-------------|---------|
|-------------------|-------------|---------|
|-------------------|-------------|---------|
|-2--2--2--2--4--4--|-4--4--6--6--|-6--6----|
|-2--2--2--2--4--4--|-4--4--6--6--|-6--6----|
|-2--2--2--2--4--4--|-4--4--6--6--|-6--6----|


  Q  Q  Q  Q    Q  Q  Q  Q  Q  Q    Q  Q
|-------------|-------------------|---------|
|-------------|-------------------|---------|
|-------------|-------------------|---------|
|-2--2--2--2--|-4--4--4--4--1--1--|-1--1----|
|-2--2--2--2--|-4--4--4--4--1--1--|-1--1----|
|-2--2--2--2--|-4--4--4--4--1--1--|-1--1----|


  Q  Q  Q  Q    Q  Q  Q  Q    Q  Q  Q  Q
|-------------|-------------|---------------|
|-------------|-------------|---------------|
|-------------|-------------|---------------|
|-2--2--2--2--|-4--4--4--4--|-6--6--6--6----|
|-2--2--2--2--|-4--4--4--4--|-6--6--6--6----|
|-2--2--2--2--|-4--4--4--4--|-6--6--6--6----|


 Gtr 1 and 2 Pre-Verse

 E E E E E E E E   E E E E E X E E E   E E E E E E E E   E E
|-----------------|-------------------|-----------------|--------|
|-----------------|-------------------|-----------------|--------|
|-----------------|-------------------|-----------------|--------|
|-----------------|-------------------|-----------------|--------|
|-6-6-6-7-7-7-7-7-|-6-6-7-7-7---2-2-2-|-4-4-4-4-4-2-2-4-|-4-4----|
|-6-6-6-----------|-6-6---------2-2-2-|-----------2-2---|--------|


  E E E E E E E E   E E E E E X E E E   E E E E E E
|-----------------|-------------------|----------------|
|-----------------|-------------------|----------------|
|-----------------|-------------------|----------------|
|-----------------|-------------------|----------------|
|-6-6-6-7-7-7-7-7-|-6-6-7-7-7---2-2-2-|-2---2-2-2-2----|
|-6-6-6-----------|-6-6---------2-2-2-|-2---2-2-2-2----|

Gtr 1 and 2 VERSE

  PM----|    PM----------|    PM------|    PM----------|
  E E E E Q  E E   E E E E Q  E E   E E Q  E E E E   E E
|----------------|----------------|----------------|--------|
|----------------|----------------|----------------|--------|
|----------------|----------------|----------------|--------|
|-6-6-6-6----6-6-|-6-6-6-6----4-4-|-4-4----4-4-4-4-|-4-4----|
|-6-6-6-6----6-6-|-6-6-6-6----4-4-|-4-4----4-4-4-4-|-4-4----|
|-6-6-6-6----6-6-|-6-6-6-6----4-4-|-4-4----4-4-4-4-|-4-4----|


  PM----|    PM--------|      PM----|      PM--------|
  E E E E Q  E E E E E E   Q  E E E E Q    E E E E E E
|------------------------|---------------|----------------|
|------------------------|---------------|----------------|
|------------------------|---------------|----------------|
|-2-2-2-2----2-2-2-2-2-2-|----4-4-4-4----|-4-4-4-4-4-4----|
|-2-2-2-2----2-2-2-2-2-2-|----4-4-4-4----|-4-4-4-4-4-4----|
|-2-2-2-2----2-2-2-2-2-2-|----4-4-4-4----|-4-4-4-4-4-4----|


  PM----|    PM----------|    PM------|    PM----------|
  E E E E Q  E E   E E E E Q  E E   E E Q  E E E E   E E
|----------------|----------------|----------------|--------|
|----------------|----------------|----------------|--------|
|----------------|----------------|----------------|--------|
|-6-6-6-6----6-6-|-6-6-6-6----4-4-|-4-4----4-4-4-4-|-4-4----|
|-6-6-6-6----6-6-|-6-6-6-6----4-4-|-4-4----4-4-4-4-|-4-4----|
|-6-6-6-6----6-6-|-6-6-6-6----4-4-|-4-4----4-4-4-4-|-4-4----|


  PM----|    PM----------|    PM------|    PM----------|
  E E E E Q  E E   E E E E Q  E E   E E Q  E E E E   E E  E E E
|----------------|----------------|----------------|--------------|
|----------------|----------------|----------------|--------------|
|----------------|----------------|----------------|--------------|
|-2-2-2-2----2-2-|-2-2-2-2----4-4-|-4-4----4-4-4-4-|-4-4--4-4-4---|
|-2-2-2-2----2-2-|-2-2-2-2----4-4-|-4-4----4-4-4-4-|-4-4--4-4-4---|
|-2-2-2-2----2-2-|-2-2-2-2----4-4-|-4-4----4-4-4-4-|-4-4--4-4-4---|


Gtr 1 and 2 Chorus

  Q  Q  Q  Q  Q  Q    Q  Q  Q  Q    Q  Q
|-------------------|-------------|---------|
|-------------------|-------------|---------|
|-------------------|-------------|---------|
|-2--2--2--2--4--4--|-4--4--6--6--|-6--6----|
|-2--2--2--2--4--4--|-4--4--6--6--|-6--6----|
|-2--2--2--2--4--4--|-4--4--6--6--|-6--6----|


  Q  Q  Q  Q    Q  Q  Q  Q  Q  Q    Q  Q
|-------------|-------------------|---------|
|-------------|-------------------|---------|
|-------------|-------------------|---------|
|-2--2--2--2--|-4--4--4--4--1--1--|-1--1----|
|-2--2--2--2--|-4--4--4--4--1--1--|-1--1----|
|-2--2--2--2--|-4--4--4--4--1--1--|-1--1----|


  Q  Q  Q  Q    Q  Q  Q  Q    Q  Q  Q  Q
|-------------|-------------|---------------|
|-------------|-------------|---------------|
|-------------|-------------|---------------|
|-2--2--2--2--|-4--4--4--4--|-6--6--6--6----|
|-2--2--2--2--|-4--4--4--4--|-6--6--6--6----|
|-2--2--2--2--|-4--4--4--4--|-6--6--6--6----|

Gtr 1(top) Gtr 2(bottom)  Bridge

E E E E E E E E E E   E E E E E E E E    E E E E E E E E   E E
|---------------------|-----------------|------------------|--------|
|---------------------|-----------------|------------------|--------|
|---------------------|-----------------|------------------|--------|
|-2-2-2-2-2-2-2-2-0-0-|-0-0-0-0-0-0-4-4-|--4-4-4-4-4-4-4-4-|-4-4----| Gtr 1
|-2-2-2-2-2-2-2-2-0-0-|-0-0-0-0-0-0-4-4-|--4-4-4-4-4-4-4-4-|-4-4----|
|-2-2-2-2-2-2-2-2-0-0-|-0-0-0-0-0-0-4-4-|--4-4-4-4-4-4-4-4-|-4-4----|
|
| W                     W                  W
|---------------------|-----------------|------------------|--------|
|---------------------|-----------------|------------------|--------|
|-9-------------------|-7---------------|-11---------------|--------|
|---------------------|-----------------|------------------|--------| Gtr 2
|-7-------------------|-5---------------|--9---------------|--------|
|---------------------|-----------------|------------------|--------|


  E E E E E E E E   E E E E E E E E    E E E E E E E E   E E E E
|-----------------|-----------------|------------------|------------|
|-----------------|-----------------|------------------|------------|
|-----------------|-----------------|------------------|------------|
|-2-2-2-2-2-2-2-2-|-0-0-0-0-0-0-0-0-|--4-4-4-4-4-4-4-4-|-4-4-4-4----|
|-2-2-2-2-2-2-2-2-|-0-0-0-0-0-0-0-0-|--4-4-4-4-4-4-4-4-|-4-4-4-4----|
|-2-2-2-2-2-2-2-2-|-0-0-0-0-0-0-0-0-|--4-4-4-4-4-4-4-4-|-4-4-4-4----|
|
| W                 W                  W
|-----------------|-----------------|------------------|------------|
|-----------------|-----------------|------------------|------------|
|-9---------------|-7---------------|-11---------------|------------|
|-----------------|-----------------|------------------|------------|
|-7---------------|-5---------------|--9---------------|------------|
|-----------------|-----------------|------------------|------------|


  E E E E E E E E   E E E E E E E E    E E E  E  E  E  E E   E E E E
|-----------------|-----------------|----------------------|------------|
|-----------------|-----------------|----------------------|------------|
|-----------------|-----------------|----------------------|------------|
|-2-2-2-2-2-2-2-2-|-0-0-0-0-0-0-0-0-|--4-4-4--4--4--4--4-4-|-4-4-4-4----|
|-2-2-2-2-2-2-2-2-|-0-0-0-0-0-0-0-0-|--4-4-4--4--4--4--4-4-|-4-4-4-4----|
|-2-2-2-2-2-2-2-2-|-0-0-0-0-0-0-0-0-|--4-4-4--4--4--4--4-4-|-4-4-4-4----|
|
| W                 W                  H      E  E  E  E
|-----------------|-----------------|----------------------|------------|
|-----------------|-----------------|----------------------|------------|
|-9---------------|-7---------------|-11-----12-14-12-11---|------------|
|-----------------|-----------------|----------------------|------------|
|-7---------------|-5---------------|--9-----10-12-10--9---|------------|
|-----------------|-----------------|----------------------|------------|


  E E E E E E E E   E E E E E E E E    E E E E E E E E   E E E E
|-----------------|-----------------|------------------|------------|
|-----------------|-----------------|------------------|------------|
|-----------------|-----------------|------------------|------------|
|-2-2-2-2-2-2-2-2-|-0-0-0-0-0-0-0-0-|--4-4-4-4-4-4-4-4-|-4-4-4-4----|
|-2-2-2-2-2-2-2-2-|-0-0-0-0-0-0-0-0-|--4-4-4-4-4-4-4-4-|-4-4-4-4----|
|-2-2-2-2-2-2-2-2-|-0-0-0-0-0-0-0-0-|--4-4-4-4-4-4-4-4-|-4-4-4-4----|
|
| W                 W                  W
|-----------------|-----------------|------------------|------------|
|-----------------|-----------------|------------------|------------|
|-9---------------|-7---------------|-11---------------|------------|
|-----------------|-----------------|------------------|------------|
|-7---------------|-5---------------|--9---------------|------------|
|-----------------|-----------------|------------------|------------|

Gtr 1 and 2 Chorus

  Q  Q  Q  Q  Q  Q    Q  Q  Q  Q    Q  Q
|-------------------|-------------|---------|
|-------------------|-------------|---------|
|-------------------|-------------|---------|
|-2--2--2--2--4--4--|-4--4--6--6--|-6--6----|
|-2--2--2--2--4--4--|-4--4--6--6--|-6--6----|
|-2--2--2--2--4--4--|-4--4--6--6--|-6--6----|


  Q  Q  Q  Q    Q  Q  Q  Q  Q  Q    Q  Q
|-------------|-------------------|---------|
|-------------|-------------------|---------|
|-------------|-------------------|---------|
|-2--2--2--2--|-4--4--4--4--1--1--|-1--1----|
|-2--2--2--2--|-4--4--4--4--1--1--|-1--1----|
|-2--2--2--2--|-4--4--4--4--1--1--|-1--1----|


  Q  Q  Q  Q    Q  Q  Q  Q    Q  Q  Q  Q
|-------------|-------------|---------------|
|-------------|-------------|---------------|
|-------------|-------------|---------------|
|-2--2--2--2--|-4--4--4--4--|-6--6--6--6----|
|-2--2--2--2--|-4--4--4--4--|-6--6--6--6----|
|-2--2--2--2--|-4--4--4--4--|-6--6--6--6----|


 Gtr 1 and 2 Outro(same as pre-verse)

  E E E E E E E E   E E E E E X E E E   E E E E E E E E   E E
|-----------------|-------------------|-----------------|--------|
|-----------------|-------------------|-----------------|--------|
|-----------------|-------------------|-----------------|--------|
|-----------------|-------------------|-----------------|--------|
|-6-6-6-7-7-7-7-7-|-6-6-7-7-7---2-2-2-|-4-4-4-4-4-2-2-4-|-4-4----|
|-6-6-6-----------|-6-6---------2-2-2-|-----------2-2---|--------|


  E E E E E E E E   E E E E E X E E E   E E E E E E X E E   E E
|-----------------|-------------------|-------------------|--------|
|-----------------|-------------------|-------------------|--------|
|-----------------|-------------------|-------------------|--------|
|-----------------|-------------------|-------------------|--------|
|-6-6-6-7-7-7-7-7-|-6-6-7-7-7---2-2-2-|-2---2-2-2-2---2-2-|-2-2----|
|-6-6-6-----------|-6-6---------2-2-2-|-2---2-2-2-2---2-2-|-2-2----|
            
Submit corrections

↑ Back to top | Tablatures and chords for acoustic guitar and electric guitar, ukulele, drums are parodies/interpretations of the original songs. You may use it for private study, scholarship, research or language learning purposes only