Home » F » Fireflight »

Fireflight - Desperate Tabs

Artists:  A B C D E F G H I J K L M N O P Q R S T U V W X Y Z # 

Desperate Tabs

(ver. 2) Click to play this song!
Fireflight
 Rating:
4.1/5 (8 votes)
                Drop C# tuning.

Intro
|------------------------------------------------------------|
|------------------------------------------------------------|
|------------------------------------------------------------|
|---2--------------2-----------------------------------------|
|----5-2-0-2---------5-2-0-2---------5-0-7-5-0-5-4-0--0-4-7-0|
|-2----------5-0--2----------5-4-0-0-----------------2-------|


Verse
e---------------------------------------------------------------------|  X2
B---------------------------------------------------------------------|
G---------------------------------------------------------------------|
D-2-2-x-x-x-x-x-x-5-5-x-x-x-x-x-x-12-12-x-x-x-x-x-x-7-7-x-x-x-x-x-x---|
A-2-2-x-x-x-x-x-x-5-5-x-x-x-x-x-x-12-12-x-x-x-x-x-x-7-7-x-x-x-x-x-x---|
D-2-2-x-x-x-x-x-x-5-5-x-x-x-x-x-x-12-12-x-x-x-x-x-x-7-7-x-x-x-x-x-x---|

Intro
|-------------------------------------------|
|-------------------------------------------|
|-------------------------------------------|
|-2-2-2-2---5-5-5-5---12-12-12-12---7-7-7-7-|
|-2-2-2-2---5-5-5-5---12-12-12-12---7-7-7-7-|
|-2-2-2-2---5-5-5-5---12-12-12-12---7-7-7-7-|

Verse 2
|---------------------------------------------------------------------|  X2
|---------------------------------------------------------------------|
|---------------------------------------------------------------------|
|-2-2-x-x-x-x-x-x-5-5-x-x-x-x-x-x-12-12-x-x-x-x-x-x-7-7-x-x-x-x-x-x---|
|-2-2-x-x-x-x-x-x-5-5-x-x-x-x-x-x-12-12-x-x-x-x-x-x-7-7-x-x-x-x-x-x---|
|-2-2-x-x-x-x-x-x-5-5-x-x-x-x-x-x-12-12-x-x-x-x-x-x-7-7-x-x-x-x-x-x---|


|-----------------------|
|-----------------------|
|-----------------------|
|-9-9-9-9---12-12-12-12-|
|-9-9-9-9---12-12-12-12-|
|-9-9-9-9---12-12-12-12-|

Chorus

|-------------------------------------------| X4
|-------------------------------------------|
|-------------------------------------------|
|-2-2-2-2---5-5-5-5---12-12-12-12---7-7-7-7-|
|-2-2-2-2---5-5-5-5---12-12-12-12---7-7-7-7-|
|-2-2-2-2---5-5-5-5---12-12-12-12---7-7-7-7-|

Verse
|------------------------------------------|
|------------------------------------------|
|------------------------------------------|
|-2-2--------------------------------------|
|-2-2--------------------------------------|
|-2-2--------------------------------------|

|-------------------------------------------------------------------|
|-------------------------------------------------------------------|
|-------------------------------------------------------------------|
|-2-2-x-x-x-x-x-x-5-5-x-x-x-x-x-x-12-12-x-x-x-x-x-x-7-7-x-x-x-x-x-x-|
|-2-2-x-x-x-x-x-x-5-5-x-x-x-x-x-x-12-12-x-x-x-x-x-x-7-7-x-x-x-x-x-x-|
|-2-2-x-x-x-x-x-x-5-5-x-x-x-x-x-x-12-12-x-x-x-x-x-x-7-7-x-x-x-x-x-x-|

|-----------------------|
|-----------------------|
|-----------------------|
|-9-9-9-9---12-12-12-12-|
|-9-9-9-9---12-12-12-12-|
|-9-9-9-9---12-12-12-12-|

Chorus

|-------------------------------------------| X4
|-------------------------------------------|
|-------------------------------------------|
|-2-2-2-2---5-5-5-5---12-12-12-12---7-7-7-7-|
|-2-2-2-2---5-5-5-5---12-12-12-12---7-7-7-7-|
|-2-2-2-2---5-5-5-5---12-12-12-12---7-7-7-7-|

Bridge
|-----------------------------------|
|-----------------------------------|
|-----------------------------------|
|-10-10-10-10-10-10-10-10-----------|
|-10-10-10-10-10-10-10-10-----------|
|-10-10-10-10-10-10-10-10-----------|

|---------------------------------|
|---------------------------------|
|---------------------------------|
|---------------------------------|
|---------5-5-5-5---------2-2-2-2-|
|-2-0-2-0---------2-0-2-0---------|

|--------------------------------------------------------------------|
|--------------------------------------------------------------------|
|--------------------------------------------------------------------|
|-10-10-10-10-10-10-10-10-10---12-12-12-12-12-12-12-12-12------------|
|-10-10-10-10-10-10-10-10-10---12-12-12-12-12-12-12-12-12------------|
|-10-10-10-10-10-10-10-10-10---12-12-12-12-12-12-12-12-12------------|

Chorus
|-------------------------------------------| X6
|-------------------------------------------|
|-------------------------------------------|
|-2-2-2-2---5-5-5-5---12-12-12-12---7-7-7-7-|
|-2-2-2-2---5-5-5-5---12-12-12-12---7-7-7-7-|
|-2-2-2-2---5-5-5-5---12-12-12-12---7-7-7-7-|


Outro

|-------| Really Fast
|-------|
|-------|
|-2-2---|
|-2-2---|
|-2-2---|
            
Submit corrections

↑ Back to top | Tablatures and chords for acoustic guitar and electric guitar, ukulele, drums are parodies/interpretations of the original songs. You may use it for private study, scholarship, research or language learning purposes only