Home » F » Firefall »

Firefall - Just Remember I Love You Tabs

Artists:  A B C D E F G H I J K L M N O P Q R S T U V W X Y Z # 

Just Remember I Love You Tabs

(ver. 2) Click to play this song!
Firefall
 Rating:
4/5 (4 votes)
                I found the chords here, and on the Firefall site, but could not find the solo anywhere. 
I am very new to this, and am not real sure about the tabbing lingo, so go gentle on 
 Please comment and add any constructive criticism.  I want to get better.

Thanks,

MJ

-------------------------------------------------------------------------------
                Just remember I Love You (Solo) - Firefall
-------------------------------------------------------------------------------

Tuning:  Standard

e|---------8--10b12--12rb10--10--8-----------------15--15--15--13--12--------|
B|--8--10---------------------------10--8--8h10p8----------------------15--13|
G|---------------------------------------------------------------------------|
D|---------------------------------------------------------------------------|
A|---------------------------------------------------------------------------|
E|---------------------------------------------------------------------------|

e|------------------------------------------------15-------------------------|
B|--15---------5\3--1--3--3b4rb3--1h3-----3b4-----15-------------------------|
G|------14-----------------------------2----------16-------------------------|
D|------------------------------------------------17-------------------------|
A|---------------------------------------------------------------------------|
E|---------------------------------------------------------------------------|
            
Submit corrections

↑ Back to top | Tablatures and chords for acoustic guitar and electric guitar, ukulele, drums are parodies/interpretations of the original songs. You may use it for private study, scholarship, research or language learning purposes only