Home » F » Fiona Apple »

Fiona Apple - Regret Tabs

Artists:  A B C D E F G H I J K L M N O P Q R S T U V W X Y Z # 

Regret Tabs

(ver. 1) Click to play this song!
Fiona Apple
 Rating:
4/5 (4 votes)
                

--------- Intro + Verse 1 + Verse 2 --------- 

e|--------------------------------------------------------------------------|
B|--------------------------------------------------------------------------|
G|--------------------------------------------------------------------------|
D|--2--3-----2--2--4-----1--------------------2-----------------------------|
A|--------6-----------3-----3--3--2--5--3--3--3-----------------------------|
E|--3--5--5--3--3--5--5--3--1--0--0--3--1--0--3-----------------------------|

'Member when we argued o'er the concept of regret
You were an expert even then but not me, not yet
Now all you gotta do's remind me that we met
And there, you got me, that's how you got me, you taught me to regret

'Member how I asked you why are you so mean
You didn't know how to react to being seen
I tried to be your friend, you made me shamed, now I'm getting e'en
And there, you got me, that's how you got me, you taught me to be mean

--------- Chorus --------- 

    C            Bb
But I ran out of white doves' feathers
   D9 (2X0210)
To soak up the hot p**s that comes from your mouth
      G
Every time you address me
    C               Bb
Oh, I ran out of of white doves' feathers
   D9
To soak up the hot p**s that comes from your mouth
      G
Every time you address me

--------- Verse 3 --------- 

e|--------------------------------------------------------------------------|
B|--------------------------------------------------------------------------|
G|--------------------------------------------------------------------------|
D|-(2)(1)(2)(1)-2--3-----2--2--4-----1--------------------2-----------------|
A|--------------------6-----------3-----3--3--2--5--3--3--3-----------------|
E|-(3)---(3)----3--5--5--3--3--5--5--3--1--0--0--3--1--0--3-----------------|

'Member when I was so sick and you didn't believe me
Then you got sick too and guess who took care of you
You hated that, didn't you, didn't you
Now, when you look at me, you're condemned to see
The monster your mother made you to be
And there, you got me, that's how you got free, you got rid of me

--------- Chorus --------- 

    C            Bb
But I ran out of white doves' feathers
   D9
To soak up the hot p**s that comes from your mouth
      G
Every time you address me
    C               Bb
Oh, I ran out of of white doves' feathers
   D9
To soak up the hot p**s that comes from your mouth
      G
Every time you address me

--------- Outro --------- 

e|--------------------------------------------------------------------------|
B|--------------------------------------------------------------------------|
G|--------------------------------------------------------------------------|
D|--2--3-----2--2--4-----1--------------------2-----------------------------|
A|--------6-----------3-----3--3--2--5--3--3--3-----------------------------|
E|--3--5--5--3--3--5--5--3--1--0--0--3--1--0--3-----------------------------|

Alone
Leave me alone
Leave me alone, leave me alone
Leave me alone, leave me alone
Alone
            
Submit corrections

↑ Back to top | Tablatures and chords for acoustic guitar and electric guitar, ukulele, drums are parodies/interpretations of the original songs. You may use it for private study, scholarship, research or language learning purposes only