Home » F » Fiona Apple »

Fiona Apple - Parting Gift Tabs

Artists:  A B C D E F G H I J K L M N O P Q R S T U V W X Y Z # 

Parting Gift Tabs

(ver. 1) Click to play this song!
Fiona Apple
 Rating:
3.8/5 (5 votes)
                Chords used:
           G   F   C   B7  Am  Dm
	e|-3---1---0---2---0---1-|
	b|-3---1---1---4---1---3-|
	G|-0---2---0---2---2---2-|
	D|-0---3---2---4---2---0-|
	A|-2---3---3---2---0---0-|
	E|-3---1---x---x---x---x-|

Intro:

e|----------------------------|
b|-------2--------------------|
G|----------------------------|
D|-----2-----2-2------0-------|
A|-0-------1---2--------------|
E|----------------------------| X2

Verses:

I opened my eyes while you
e|----------------------------------|
b|-------2--------------------------|
G|----------------------------------|
D|-----2-----2-2------0-------------|
A|-0-------1---2--------------------|
E|---------------------------- (<---| riff 8 times throughout the verse)
Were kissing me once, more than once
And you looked as sincere as a dog
Just as sincere as a dog does
When it's the food on your lips with which it's in love

I bet you could never tell...
e|-----------------------------------------------------|
b|-----------------------------------------------------|
G|-------0------------------------0--------------------|
D|-----1-----1-1------0---------1-----1-1--------------|
A|-3-------3---2----------2-3-------3---0------3-------|
E|----------------------------------------------- (<---| riff 2 times throughout bridge)
That I knew you didn't know me that well

G                          F
It's my fault you see you never learned that much from me

Chorus:

C      B7           C            G
Oh you silly stupid past time of mine
C      B7              F          G   (G.Ab.Am)
       you were always good for a rhyme
Am               G            C
    and from the first to the last time
    Dm         C
the signs said stop
           G
but we went on whole hearted
   Am              G
it ended bad but I love what we started
     C
they said stop
           G
but we went on whole hearted
   Am              G
it ended bad but I love what we started

Verse 2 (same riff as the first one)
I took off my glasses while you were yelling at me once,
more than once
So's not to see you see me react
Should've put em, should've put em on again
So I could see you see me sincerely yelling back

Bridge:
I bet your fortress face
Belied your fort of lace

It's by the grace of me you never learned what I could see

Chorus

Outro:

e|----------------------|
b|-------2--------------|
G|----------------------|
D|-----2-----2-2------0-|
A|-0-------1---2--------|
E|----------------------|  X4, end on open A.
            
Submit corrections

↑ Back to top | Tablatures and chords for acoustic guitar and electric guitar, ukulele, drums are parodies/interpretations of the original songs. You may use it for private study, scholarship, research or language learning purposes only