Home » F » Finley »

Finley - Gruppo Randa Tabs

Artists:  A B C D E F G H I J K L M N O P Q R S T U V W X Y Z # 

Gruppo Randa Tabs

(ver. 1) Click to play this song!
Finley

[Intro]

e|---------------------------------------------------------------------------|
B|---------------------------------------------------------------------------|
G|-----------------------------------------3--1------------------------------|
D|----------3---3-3-3-3---3-3-3-3---3-3-3--3--1------------------------------|
A|----------3---3-3-3-3---3-3-3-3---3-3-3------------------------------------|
E|----------1---1-1-1-1---1-1-1-1---1-1-1------------------------------------|

e|---------------------------------------------------------------------------|
B|---------------------------------------------------------------------------|
G|---------------------------------------------------------------------------|
D|----------3---3-3-3-3---3-3-3-3---3-3-3--6--6------------------------------|  x3
A|----------3---3-3-3-3---3-3-3-3---3-3-3--6--6------------------------------|
E|----------1---1-1-1-1---1-1-1-1---1-1-1--8--4------------------------------|

e|---------------------------------------------------------------------------|
B|---------------------------------------------------------------------------|
G|----------5-5-5-5-5-5-5-5--------------------------------------------------|
D|----------5-5-5-5-5-5-5-5---8-8--6-6--8-8--6-------------------------------|
A|----------3-3-3-3-3-3-3-3---8-8--6-6--8-8--6-------------------------------|
E|----------------------------6-6--4-4--6-6--4-------------------------------|


[Verse]

e|---------------------------------------------------------------------------|
B|---------------------------------------------------------------------------|
G|---------------------------------------------------------------------------|
D|------------------------------8-6------------------------------------------|
A|------------------------------8-6------------------------------------------|
E|----------11-11-11-11-11-11---6-4------------------------------------------|
            PM...............

e|--------------------------------------------------------------------------|
B|--------------------------------------------------------------------------|
G|--------------------------------------------------------------------------|
D|------------------------------8-6-3---------------------------------------|
A|------------------------------8-6-3---------------------------------------|
E|----------11-11-11-11-11-11---6-4-1---------------------------------------|
            PM...............

e|--------------------------------------------------------------------------|
B|--------------------------------------------------------------------------|
G|---------------------------------------------------5-5--------------------|
D|------------------------------8-6------------------5-5--8-8---------------|
A|------------------------------8-6------------------3-3--8-8---------------|
E|----------11-11-11-11-11-11---6-4-----11-11-11-11-------6-6---------------|
            PM...............

e|---------------------------------------------------------------------------|
B|---------------------------------------------------------------------------|
G|---------------------------------------------------------------------------|
D|----------3---3-3-3-3---3-3-3-3---3-3-3--6--6------------------------------|  x2
A|----------3---3-3-3-3---3-3-3-3---3-3-3--6--6------------------------------|
E|----------1---1-1-1-1---1-1-1-1---1-1-1--8--4------------------------------|

e|---------------------------------------------------------------------------|
B|---------------------------------------------------------------------------|
G|---------------------------------------------------------------------------|
D|------------------------------8-6------------------------------------------|
A|------------------------------8-6------------------------------------------|
E|----------11-11-11-11-11-11---6-4------------------------------------------|
            PM...............

e|--------------------------------------------------------------------------|
B|--------------------------------------------------------------------------|
G|--------------------------------------------------------------------------|
D|------------------------------8-6-3---------------------------------------|
A|------------------------------8-6-3---------------------------------------|
E|----------11-11-11-11-11-11---6-4-1---------------------------------------|
            PM...............

e|--------------------------------------------------------------------------|
B|--------------------------------------------------------------------------|
G|---------------------------------------------------5-5--------------------|
D|------------------------------8-6------------------5-5--8-8---------------|
A|------------------------------8-6------------------3-3--8-8---------------|
E|----------11-11-11-11-11-11---6-4-----11-11-11-11-------6-6---------------|
            PM...............


11 = First fret two times


[Chorus]

e|---------------------------------------------------------------------------|
B|---------------------------------------------------------------------------|
G|---------------5-5---------------------------------------------------------|
D|----------3-3--5-5--8-8---10-10--------------------------------------------|  x2
A|----------3-3--3-3--8-8---10-10--------------------------------------------|
E|----------1-1-------6-6---8--8---------------------------------------------|

e|---------------------------------------------------------------------------|
B|---------------------------------------------------------------------------|
G|---------------5-5---------------------------------------------------------|
D|----------3-3--5-5--8-8-8-8-8-8-8-8--11-11-11-11--8-8-8-8------------------|
A|----------3-3--3-3--8-8-8-6-8-8-8-8--11-11-11-11--8-8-8-8------------------|
E|----------1-1-------6-6-6-6-6-6-6-6--9--9--9--9---6-6-6-6------------------|

e|---------------------------------------------------------------------------|
B|---------------------------------------------------------------------------|
G|---------------------------------------------------------------------------|
D|----------3---3-3-3-3---3-3-3-3---3-3-3--6--6------------------------------|  x2
A|----------3---3-3-3-3---3-3-3-3---3-3-3--6--6------------------------------|
E|----------1---1-1-1-1---1-1-1-1---1-1-1--8--4------------------------------|


REPEAT [VERSE]


REPEAT [CHORUS] (without last piece)


[Solo]

e|---------------------------------------------------------------------------|
B|---------------------------------------------------------------------------|
G|---------b12-b12--10-10-----b12-b12--10-10----10----10-h12-10--------------|
D|-------------------------------------------------12------------------------|
A|---------------------------------------------------------------------------|
E|---------------------------------------------------------------------------|

e|---------------------------------------------------------------------------|
B|---------------------------------------------------------------------------|
G|---------b12-b12-b12--10-10--10-p12-h10--/14-12------------12-h14-p12------|
D|---------------------------------------------------------------------------|
A|---------------------------------------------------------------------------|
E|---------------------------------------------------------------------------|

e|---------------------------------------------------------------------------|
B|----------------------------------8-9-10-----------------------------------|
G|---------10-h12-p10------------8--8-9-10-----------------------------------|
D|---------------------------------------------------------------------------|
A|---------------------------------------------------------------------------|
E|---------------------------------------------------------------------------|

////// DURING SOLO REPEAT CHORUS


[Outro]

e|---------------------------------------------------------------------------|
B|---------------------------------------------------------------------------|
G|---------------------------------------------------------------------------|
D|----------------------8-6--------------------------------------------------|  x3
A|----------------------8-6--------------------------------------------------|
E|----------------------6-4--------------------------------------------------|

e|---------------------------------------------------------------------------|
B|---------------------------------------------------------------------------|
G|----------------------5-5--------------------------------------------------|
D|----------------------5-5--8-8---------------------------------------------|
A|----------------------3-3--8-8---------------------------------------------|
E|---------------------------6-6---------------------------------------------|


REPEAT [CHORUS] x2 (without last piece)

[Solo part during last chorus]

e|---------------------------------------------------------------------------|
B|--------------------13-----13-----13-----13--------------------------------|
G|----------------b12----b12----b12----b12----br12-10-10---------------------|
D|---------------------------------------------------------------------------|
A|---------------------------------------------------------------------------|
E|---------------------------------------------------------------------------|

e|---------------------------------------------------------------------------|
B|---------------------------------------------------------------------------|
G|----------------------10PA---10---12---10----------------------------------|
D|----------------8-/10------------------------------------------------------|
A|---------------------------------------------------------------------------|
E|---------------------------------------------------------------------------|


[End]

e|---------------------------------------------------------------------------|
B|---------------------------------------------------------------------------|
G|---------------------------------------------------------------------------|
D|----------3---3-3-3-3---3-3-3-3---3-3-3--6--6------------------------------|  x2
A|----------3---3-3-3-3---3-3-3-3---3-3-3--6--6------------------------------|
E|----------1---1-1-1-1---1-1-1-1---1-1-1--8--4------------------------------|

e|---------------------------------------------------------------------------|
B|---------------------------------------------------------------------------|
G|---------------------------------------------------------------------------|
D|----------3-3-3-3----------------------------------------------------------|
A|----------3-3-3-3----------------------------------------------------------|
E|----------1-1-1-1----------------------------------------------------------|            
Submit corrections

↑ Back to top | Tablatures and chords for acoustic guitar and electric guitar, ukulele, drums are parodies/interpretations of the original songs. You may use it for private study, scholarship, research or language learning purposes only