Home » F » Finley »

Finley - Diventerai Una Star Tabs

Artists:  A B C D E F G H I J K L M N O P Q R S T U V W X Y Z # 

Diventerai Una Star Tabs

(ver. 1) Click to play this song!
Finley
Tuning
Eb Ab Db Gb Bb Eb

eb |------------------------------------------------------------|
Bb |--0--4h/0p--5h/0p--7h/0p--5h/0p--4h/0p--2h/0p--2h/0p--2h/0p-|
Gb |------------------------------------------------------------|
Db |------------------------------------------------------------|
Ab |------------------------------------------------------------|
Eb |------------------------------------------------------------|


eb |------------------------------------------------------------|
Bb |--4h/0p--5h/0p--7h/0p--5h/0p--4h/0p--2h/0p--2h/0p--2h/0p----|
Gb |------------------------------------------------------------| x2volte
Db |------------------------------------------------------------|
Ab |------------------------------------------------------------|
Eb |------------------------------------------------------------|

eb |------------------------------------------------------------|
Bb |--4h/0p--5h/0p--7h/0p--9h/0p--7h/0p--5h/0p--4h/0p--2--------|
Gb |------------------------------------------------------------|
Db |------------------------------------------------------------|
Ab |------------------------------------------------------------|
Eb |------------------------------------------------------------|

In bicordi...

SI
025613
MI
Numero di una stronza che
SOL#     FA#                MI
Dice di aver risposte ai miei perché

SI
Conosce cose che non so
MI
Vede un passato che non ho
SOL#     FA#                MI
Prevede un jackpot ricco al casinò
FA#      MI
Una voce grida dentro me
SI
"No! No! No! No!"
FA#            MI         FA#
Ma con la sua sfera vuole dirmi che

Rit.
             SI
Diventerai una star (Vedrai)
          FA#
Una celebrità (Sarai)
                SOL# FA#
La gente intorno a te
                SOL# FA#
Potrà toccare un re

             SI
Diventerai una star (Vedrai)
          FA#
Una celebrità (Potrai)
                SOL#
Trasformar ciò che ora sogni
Db |---9--8---------------------------------------------|
Ab |---7--6--9------------------------------------------|
Eb |---------7------------------------------------------|
In una realtà

Che storia incredibile
E' un' onda che mi trascina via
Sento ancora voci dentro me
"No!No!No!No!"
Basta la sua sfera per distruggerle

Rit.
Diventerai una star (Vedrai)
Una celebrità (Sarai)
La gente intorno a te
Potrà toccare un re
Diventerai una star (Vedrai)
Una celebrità (Potrai)
Trasformar ciò che ora sogni
In una realtà

Ogni tua verità non mi va...

eb |----------------------------------------------------|
Bb |--------2-------------------------------------------|
Gb |------4-----4---4-----------------------------------|
Db |----4---------4-------------------------------------|
Ab |--2-------------------------------------------------|
Eb |----------------------------------------------------|

SI
Ogni tua verità non mi va
SI        MI          SOL#     MI
Giochi coi miei sogni dimmi perché
SI        MI          SOL#     MI
Straccio quel numero e senza di te

Rit.
Diventerò una star (Vedrai)
E con semplicità (Lo Sai)
La gente intorno a me
Potrà capire che
Diventerò una star (Go!Go!Go!)
E con semplicità (Go!Go!Go!)

Io vivrò il più grande sogno
La Musica

p = pull off
h = hammer on
            
Submit corrections

↑ Back to top | Tablatures and chords for acoustic guitar and electric guitar, ukulele, drums are parodies/interpretations of the original songs. You may use it for private study, scholarship, research or language learning purposes only