Home » F » Finish Ticket »

Finish Ticket - Doctor Chords

Artists:  A B C D E F G H I J K L M N O P Q R S T U V W X Y Z # 

Doctor Chords

(ver. 1) Click to play this song!
Finish Ticket
Verse
e|--x-----x----x---------x-----x---x---|
B|--x-----x----x---------x-----x---x---|
G|--x-----x----x---------x-----x---x---|
D|--5-----9----4---------x-----x---x---|
A|--7-----10---5---------3-----2---7---| 
E|--x-----x----x---------5-----3---8---|
Thread by thread, I pull apart my shelter, push ahead 
But when I find just what I’m looking for, 
I’m gonna need a friend, an open door 

To be naive, to let it pass me by, and to relieve 
Myself of everything in front of me. 
To neglect responsibility 

Prechorus 
e|--x-----x---------x-----x---x---|       
B|--x-----x---------x-----x---x---|      
G|--x-----x---------x-----x---x---|      
D|--5-----4---------x-----x---x---|    
A|--7-----5---------3-----2---7---| 
E|--x-----x---------5-----3---8---|      
I’m gonna call on somebody, in a cry or plea 
Could be something discovered in reality 

e|--x----x-------x---x--x--x--| 
B|--x----x-------x---x--x--x--|
G|--x----x-------x---x--x--x--|
D|--5----4-------x---x--x--x--|
A|--7----5-------3---2--7--9--|
E|--x----x-------5---3--8--10-|
I couldn't tell ya, it hits us in different ways 

Chorus
G                        Em
I know we’re young but I feel so old
Am                 D
Get me the doctor, call me the doctor 
G             Em
One by one we become undone 
Am                 D
Get me the doctor, call me the doctor 

Em D Am C

Verse
e|--x-----x----x---------x-----x---x---|
B|--x-----x----x---------x-----x---x---|
G|--x-----x----x---------x-----x---x---|
D|--5-----9----4---------x-----x---x---|
A|--7-----10---5---------3-----2---7---| 
E|--x-----x----x---------5-----3---8---|
Now we’re here, but all we want to do is disappear 
And that thread that you were walking on 
Has now withered in your years withdrawn 

Prechorus
e|--x-----x---------x-----x---x----|      
B|--x-----x---------x-----x---x----|     
G|--x-----x---------x-----x---x----|      
D|--5-----4---------x-----x---x----|      
A|--7-----5---------3-----2---7----|    
E|--x-----x---------5-----3---8----|           
You’re gonna call on somebody, in a cry or plea 
Could be something discovered, in reality, well 
e|--x----x-------x---------| 
B|--x----x-------x---1--3--|
G|--x----x-------x---2--4--|
D|--5----4-------x---3--5--|
A|--7----5-------3---------|
E|--x----x-------5---x--x--|
I couldn't tell ya, it hits us in different ways 

Chorus
G                        Em
I know we’re young but I feel so old
Am                 D
Get me the doctor, call me the doctor 
G             Em
One by one we become undone 
Am                 D
Get me the doctor, call me the doctor 

Bridge
Am      D                 Em
Oh, the days they pass me by
      Bm          G          Am
I sit still but I don’t know why 
           D           Em
And in the night, I’ll rise 
G    Bm    C
I’ll never go, 
        Cm
so I'll never know 

Chorus

Outro
Em G Am C Cmaj9/B Cmaj9/G

End on Em 
            
Submit corrections

↑ Back to top | Tablatures and chords for acoustic guitar and electric guitar, ukulele, drums are parodies/interpretations of the original songs. You may use it for private study, scholarship, research or language learning purposes only