Home » F » Finger Eleven »

Finger Eleven - Stay In Shadow Tabs

Artists:  A B C D E F G H I J K L M N O P Q R S T U V W X Y Z # 

Stay In Shadow Tabs

(ver. 1) Click to play this song!
Finger Eleven
 Rating:
4/5 (4 votes)
                
Tuning: Db Ab Db Gb Bb eb


Intro:
-|------------------------|-    -|--5^--|-
-|------------------------|-    -|--5^--|-
-|-----7/9--9/10----------|-    -|--5^--|-
-|-----xx---x--x--8-8\-5--|- 4x -|------|-
-|-----5/7--7/-8--8-8\-5--|-    -|------|-
-|--0-------------8-8\-5--|-    -|------|-
                                 harmonic


Verse: (no guitar)


Chorus:
-|-------1------3--------------------|-    -|-----------|-
-|-------4------6--------------------|-    -|-----------|-
-|-------3------5--------------------|-    -|-----------|-
-|--------------------7-----7-----7--|- 4x -|--555-555--|-
-|-----------------------------------|-    -|--555-555--|-
-|--1111---3333---555---555---555----|-    -|--555-555--|-


Verse:
-|-----------------------|-    -|------------------------|-
-|-----------------------|-    -|------------------------|-
-|-----------------------|- 4x -|-----7/9-9/10-----------|- 4x
-|----------------8\5-5--|-    -|--0--7/9-9/10--8-8\--5--|-
-|-----5/7-7h8----8\5-5--|-    -|--0--5/7-7/-9--8-8\--5--|-
-|--0-----------8-8\5-5--|-    -|--0------------8-8\--5--|-


Chorus:
-|-------1------3--------------------|-    -|------------|-
-|-------4------6--------------------|-    -|------------|-
-|-------3------5--------------------|-    -|------------|-
-|--------------------7-----7-----7--|- 4x -|--------55--|-
-|-----------------------------------|-    -|-----55555--|-
-|--1111---3333---555---555---555----|-    -|---5555555--|-


Bridge:
-|---------------------------------|-
-|---------------------------------|-
-|--3------------------------------|-
-|--3--3---------------------------|- 4x
-|--1--3-----5-3-xx-3----5-7-xx-5--|-
-|-----3---0-----xx----0-----xx----|-


-|--------------------|-
-|--------------------|-
-|--3-----------7--5--|-
-|--3--3--5--1--7--5--|-
-|--1--3--5--1--5--3--|-
-|-----3--5--1--------|-


-|----------|-
-|----------|-
-|----------|-
-|------5b--|-
-|--/12-----|-
-|----------|-



Solo:

The solo's got a TON of slides, but it's not too hard...It sounds pretty close.
Just listen to the song for the timing. The second guitar plays the "Intro" guitar part during the solo...

-|--------------------------------------------------------------------------|-
-|--------------------------------------------------------------------------|-
-|-------17\14-17\12/14----------12-12/14---------17-14/17\14---------------|-
-|--/19-------------------/15-15----------15--/19---------------/15--15/17--|-
-|--------------------------------------------------------------/15---------|-
-|--------------------------------------------------------------------------|-

-|--------------------------------------------------------------------------|-
-|--------------------------------------------------------------------------|-
-|--13b-------/14-14-17-14---------------17\14-12-----------14/17-17-17\14--|-
-|------15------------------/19---/15-15----------17/19-15------------------|-
-|--------------------------------------------------------------------------|-
-|--------------------------/19---------------------------------------------|-

-|----------------------|-
-|-----17br----16br-15--|-
-|----------------------|-
-|----------------------|-
-|--19------19----------|-
-|----------------------|-


Chorus:
-|-------------------------------|-
-|-------------------------------|-
-|-------------------------------|-
-|----------------7-----7-----7--|-
-|--111--333--555----------------|-
-|--111--333--555---555---555----|-

Play the part above twice, then play the normal chorus 4x


Outro:


-|-----------|-
-|-----------|-
-|-----------|-
-|--555-555--|- Guitar 1
-|--555-555--|-
-|--555-555--|-

-|-----------|-
-|-----------|-
-|-------12--|-
-|-----------|- Guitar 2
-|--20\------|-
-|-----------|-
            
Submit corrections

↑ Back to top | Tablatures and chords for acoustic guitar and electric guitar, ukulele, drums are parodies/interpretations of the original songs. You may use it for private study, scholarship, research or language learning purposes only