Home » F » Final Fantasy X »

Final Fantasy X - Silence Before The Storm Tabs

Artists:  A B C D E F G H I J K L M N O P Q R S T U V W X Y Z # 

Silence Before The Storm Tabs

(ver. 1) Click to play this song!
Final Fantasy X
Final Fantasy X

e-------------------------------
b—------------------------------
g-------------------------------
d-9-7-6--4-6--4-2-4-6-7---------
a-------------------------------
e-------------------------------

e-------------------------------
b—------------------------------
g-------------------------------
d-9-7-6--4-246--2-4-6-----------
a-------------------------------
e-------------------------------

e-------------------------------
b—------------------------------
g-------------------------------
d-7-5-4--2-4--2-0-2-4-5---------
a-------------------------------
e-------------------------------

e-------------------------------
b-------------------------------
g-------------------------------
d-7-5-4--2-0-2-4--0-2-4---------
a-------------------------------
e-------------------------------
            
Submit corrections

↑ Back to top | Tablatures and chords for acoustic guitar and electric guitar, ukulele, drums are parodies/interpretations of the original songs. You may use it for private study, scholarship, research or language learning purposes only