Home » F » Final Fantasy X »

Final Fantasy X - Game Over Tabs

Artists:  A B C D E F G H I J K L M N O P Q R S T U V W X Y Z # 

Game Over Tabs

(ver. 1) Click to play this song!
Final Fantasy X
Final Fantasy X - Game Over
FFX Soundtrack
Normal Tuning
This is the little song that's played when you get a game over.

|--------------------------------|22--20--15--12--10--8---3---0---|
|--------------------------------|20------17----------------------|
|--------------------------------|--------------------------------|
|--------------------------------|--------------------------------|
|--------------------------------|--------------------------------|
|--------------------------------|--------------------------------|

|--------0---1-----------1---3---|5-------6---5---3---------------|
|--------------------------------|--------------------------------|
|14--------------17--------------|5-------7---5---5---------------|
|15--------------14--------------|3---------------2---------------|
|17----------------------3-------|--------------------------------|
|17--------------20--------------|--------------------------------|

|10------6---1-----------8-------|8---10--10----------15--19--20--|
|10------8-------5---------------|--------------------------------|
|----------------9-------5---3---|----7---12----------------------|
|--------------------------------|--------------------------------|
|--------------------------------|--------------------------------|
|10--------------8---------------|--------------------------------|

|6-------6---13--15------8-------|4---4---9---16--3---6---11------|
|6-------------------------------|2---------------4---------------|
|----------------17--0---5-------|----1---6-----------3---8-------|
|--------3-------17--------------|----------------1-----------1---|
|8---1-----------------------3---|4-------------------------------|
|--------------------------------|--------------------------------|

|0-------7---12----------5-------|7---9---9-----------------------|
|------------------------4-------|--------------------------------|
|4---------------20--------------|--------------------------------|
|2-------9-------16------4-------|--------------------------------|
|--------7-------18--------------|----------------4---------------|
|----------------16--------------|--------------------------------|
            
Submit corrections

↑ Back to top | Tablatures and chords for acoustic guitar and electric guitar, ukulele, drums are parodies/interpretations of the original songs. You may use it for private study, scholarship, research or language learning purposes only