» » »

Filter - You Walk Away Tabs

Artists:  A B C D E F G H I J K L M N O P Q R S T U V W X Y Z # 

You Walk Away Tabs

(ver. 3) Click to play this song!
Filter
 Rating:
4/5 (4 votes)

 You Walk Away lessons Tabs too difficult? Try these video lessons and learn fast
 
                Tuning: Drop D

. = palm mute
h = hammer on
p = pull off
b = bend

Intro 1: palm muted
-0-1--0-1--0-1----------------------------------------------------------------
-0-1--0-1--0-1----------------------------------------------------------------
-0-1--0-1--0-1----------------------------------------------------------------
 . .  . .  . .

intro 2:
-0-1-0h1p0--1\5---------------------------------------------------------------
-0-1-0h1p0--1\5---------------------------------------------------------------
-0-1-0h1p0--1\5---------------------------------------------------------------
                                                                              

pre-chorus:                                                                             
-4-5--0-4-5-0-1-----1-1-1-1-1-1-0-0-0-0-0-0-----------------------------------
-4-5--0-4-5-0-1-----1-1-1-1-1-1-0-0-0-0-0-0-----------------------------------
-4-5--0-4-5-0-1-----1-1-1-1-1-1-0-0-0-0-0-0-----------------------------------
                    . . . . . . . . . . . .                                                          

chorus:
-11/12/11-11-11-11------------------------------------------------------------
-x---x--x--x--x--x--8-8-8-8--6-6-6-3--6-6-6-3--6-3----------------------------
-9/-10/-9--9--9--9--8-8-8-8--6-6-6-3--6-6-6-3--6-3----------------------------
--------------------8-8-8-8--6-6-6-3--6-6-6-3--6-3----------------------------

3:21
---------------|--------------------------------------------------------------
---------------|--------------------------------------------------------------
---------------|--------------------------------------------------------------
-5b--5b-5b-5b--|--------------------------------------------------------------
---------------|--------------------------------------------------------------
---------------|--------------------------------------------------------------
                                                                              

                                                                                                                                                            
breakdown: 3:25
-1-0---1-0-1-0--1-0--1-0-1-0--3h5---------------------------------------------
-1-0---1-0-1-0--1-0--1-0-1-0--3h5---------------------------------------------
-1-0---1-0-1-0--1-0--1-0-1-0--3h5---------------------------------------------
 . .   . . . .  . .  . . . .
            
Submit corrections


        You Walk Away lessons Hard to play? Try these video lessons and learn fast You Walk Away lessons
        
↑ Back to top | Tablatures and chords for acoustic guitar and electric guitar, ukulele, drums are parodies/interpretations of the original songs. You may use it for private study, scholarship, research or language learning purposes only