» » »

Filter - Soldiers Of Misfortune Tabs

Artists:  A B C D E F G H I J K L M N O P Q R S T U V W X Y Z # 

Soldiers Of Misfortune Tabs

(ver. 2) Click to play this song!
Filter
 Rating:
4/5 (4 votes)

 Soldiers Of Misfortune lessons Tabs too difficult? Try these video lessons and learn fast
 
                -------------------------------------------------------------------------------
                           Soldiers of Misfortune (Acoustic) - Filter
-------------------------------------------------------------------------------

Tuning: Dropped D



This tab is just the meat and potatoes of the song. It sounds close to it when played 
along with the link provided.
There are two acoustics playing in the video but sounds good when played along. Listen 
to the song for the strumming pattern.

Intro:


e|-0-0-0-0---0-0-0-0---------------------------------------------------------|
B|-0-0-0-0---0-0-0-0---------------------------------------------------------|
G|-4-4-4-4---7-7-7-7---------------------------------------------------------|
D|-2-2-2-2---5-5-5-5---------------------------------------------------------|
A|-2-2-2-2---5-5-5-5---------------------------------------------------------|
E|-2-2-2-2---5-5-5-5---------------------------------------------------------|


Verse:

e|---------------------------------------------------------------------------|
B|---------------------------------------------------------------------------|
G|-9-9-9-9---12-12-12-12---5-5-5-5---4-4-4-4---7-7---------------------------|
D|-7-7-7-7---10-10-10-10---3-3-3-3---2-2-2-2---5-5---------------------------|
A|-7-7-7-7---10-10-10-10---3-3-3-3---2-2-2-2---5-5---------------------------|
E|-7-7-7-7---10-10-10-10---3-3-3-3---2-2-2-2---5-5---------------------------|


Chorus:                   ********

e|---------------------------------------------------------------------------|
B|---------------3-3-3-3-----------------------------------------------------|
G|-7-7-7-x-x-x-x-2-2-2-2----------------------------------7-7----------------|
D|-5-5-5-x-x-x-x-0-0-0-0--11-11-h-12-p 11---9-9-h-11-p-9--5-5----------------|
A|-5-5-5-x-x-x-x-0-0-0-0--9-9--------9------7-7--------7--5-5----------------|
E|-5-5-5-x-x-x-x-0-0-0-0--9-9--------9------7-7--------7--5-5----------------|


*****This part is played once in the song towards the end...think its prior to the last chorus

e|---------------------------------------------------------------------------|
B|-3-3-3-3-------------------------------------------------------------------|
G|-2-2-2-2---9-9--1010-1212-1010---------------------------------------------|
D|-0-0-0-0---x-x--x-x--x-x--x-x----------------------------------------------|
A|-0-0-0-0---7-7--9-9--1010-9-9----------------------------------------------|
E|-0-0-0-0---0-0--0-0--0-0--0-0----------------------------------------------|




Listen to the song for timing and structure...fairly 
simple...questions/corrections...dont hesitate
            
Submit corrections


        Soldiers Of Misfortune lessons Hard to play? Try these video lessons and learn fast Soldiers Of Misfortune lessons
        
↑ Back to top | Tablatures and chords for acoustic guitar and electric guitar, ukulele, drums are parodies/interpretations of the original songs. You may use it for private study, scholarship, research or language learning purposes only