» » »

Fields Of The Nephilim - In The Morning Tabs

Artists:  A B C D E F G H I J K L M N O P Q R S T U V W X Y Z # 

In The Morning Tabs

(ver. 1) Click to play this song!
Fields Of The Nephilim
 Rating:
4.3/5 (27 votes)

 In The Morning  lessons Tabs too difficult? Try these video lessons and learn fast
 
                [Verse 1]

   C                               Em
e|-0-----0---------0-----0---------3-----3---------3-----3---------|
B|----1-------1--1----1-------1--1----0-------0--0----0-------0--0-|
G|-----0-------0-------0-------0-------0-------0-------0-------0---|
D|-----------------------------------------------------------------|
A|-3---------------3-----------------------------------------------|\
E|---------------------------------0---------------0---------------| \
   D                               C                                  x2
e|-2-----2---------2-----2---------0-----0---------0-----0---------| /
B|----3-------3--3----3-------3--3----1-------1--1----1-------1--1-|/
G|-----2-------2-------2-------2-------0-------0-------0-------0---|
D|-0---------------0-----------------------------------------------|
A|---------------------------------3---------------3---------------|
E|-----------------------------------------------------------------|


   C                               Em
e|-0-----0---------0-----0---------3-----3---------3-----3---------|
B|----1-------1--1----1-------1--1----0-------0--0----0-------0--0-|
G|-----0-------0-------0-------0-------0-------0-------0-------0---| G1
D|-----------------------------------------------------------------|
A|-3---------------3-----------------------------------------------|
E|---------------------------------0---------------0---------------|
 |                                                                 |
e|-----------------------------------------------------------------|
B|-------------5---5-----------7---8-------------------------------|
G|-----------------------------------------------------------------| G2
D|-----------------------------------------------------------------|
A|-----------------------------------------------------------------|
E|-----------------------------------------------------------------|

   D                               C
e|-2-----2---------2-----2---------0-----0---------0-----0---------|
B|----3-------3--3----3-------3--3----1-------1--1----1-------1--1-|
G|-----2-------2-------2-------2-------0-------0-------0-------0---| G1
D|-0---------------0-----------------------------------------------|
A|---------------------------------3---------------3---------------|
E|-----------------------------------------------------------------|
 |                                                                 |
e|-----------------------------------------------------------------|
B|-10--------------------------12\-5-----------8\5-----------------|
G|-----------------------------------------------------------------| G2
D|-----------------------------------------------------------------|
A|-----------------------------------------------------------------|
E|-----------------------------------------------------------------|


[Verse 2]

   C                               Em
e|-0-----0---------0-----0---------3-----3---------3-----3---------|
B|----1-------1--1----1-------1--1----0-------0--0----0-------0--0-|
G|-----0-------0-------0-------0-------0-------0-------0-------0---|
D|-----------------------------------------------------------------|
A|-3---------------3-----------------------------------------------|\
E|---------------------------------0---------------0---------------| \
   D                               C                                  x2
e|-2-----2---------2-----2---------0-----0---------0-----0---------| /
B|----3-------3--3----3-------3--3----1-------1--1----1-------1--1-|/
G|-----2-------2-------2-------2-------0-------0-------0-------0---|
D|-0---------------0-----------------------------------------------|
A|---------------------------------3---------------3---------------|
E|-----------------------------------------------------------------|


[Pre-Chorus]

   D                               C
e|-2-----2---------2-----2---------0-----0---------0-----0---------|
B|----3-------3--3----3-------3--3----1-------1--1----1-------1--1-|
G|-----2-------2-------2-------2-------0-------0-------0-------0---|
D|-0---------------0-----------------------------------------------|
A|---------------------------------3---------------3---------------|
E|-----------------------------------------------------------------|
   D                               C                           v ^
e|-2-----2---------2-----2---------0-------------------------------|
B|----3-------3--3----3-------3--3---------------------------------|
G|-----2-------2-------2-------2-------------------------------x-x-|
D|-0---------------0-------------------------------------------x-x-|
A|---------------------------------3---------------------------x-x-|
E|-----------------------------------------------------------------|


[Chorus]

C          G                    D
   In the night-time, we'll be fine, we'll move and keep on movin'
C               G                  D
   'Neath the stars of an honest sky, we'll love and keep on lovin'
C            G               D             Em
   Lay your guard down honey,  we're just here for a little while,
C          G                    D
   In the morning, will you be mine?
C          G                    D
   In the morning, will you be mine?

C


[Verse 3]

C                            Em
   When a sign ignites your mind, 
         D                                 C
   You know there's more to see and more to find,
                             Em
   Passion-led, full-steam ahead, 
         D                               C
   To a destination free of what's been said,


[Pre-Chorus]

D
   The streets all lead the same way,
C
   Back to the dawning of another day,
D                              C
   Take my hand and we'll go as one


[Chorus]

C          G                    D
   In the night-time, we'll be fine, we'll move and keep on movin'
C               G                  D
   'Neath the stars of an honest sky, we'll love and keep on lovin'
C            G               D             Em
   Lay your guard down honey,  we're just here for a little while,
C          G                    D
   In the morning, will you be mine?
C          G                    D
   In the morning, will you be mine?
C          G                    D
   In the morning, will you be mine?
                C
   Will you be mine?


[Solo] 

(G1 strumming)
   
   Em              D               C
e|-----------------------------------------------------------------|
B|-8-----------8-8---7---7---8-7---8-7---5---5-5-7-----5---7-8-----|
G|-----------------------------------------7-----------------------| G2
D|-----------------------------------------------------------------|
A|-----------------------------------------------------------------|
E|-----------------------------------------------------------------|
   Em              D                   C
e|-----------------------------------------------------------------------|
B|-8---8----8-8--8-8--10--10--12-10--8-10--12--12--12--12--12--12--10--8-|
G|-----------------------------------------------------------------------| G2
D|-----------------------------------------------------------------------|
A|-----------------------------------------------------------------------|
E|-----------------------------------------------------------------------|
   Em              D               C
e|-----------------------------------------------------------------|
B|-8---8---8---8--8-8--7--7---8-7--8--7--5-----5-7-----5-----------|
G|-----------------------------------------7---------------7--5----| G2
D|-----------------------------------------------------------------|
A|-----------------------------------------------------------------|
E|-----------------------------------------------------------------|
   Em              D               C                                 
e|-----------------------------------------------------------------|-----------|
B|---------------------3---------5-5-----7-7-----8-8-----10-10-----|-12--------|
G|-4-------4--2---4------------------------------------------------|-----------| G2
D|-----------------------------------------------------------------|->       >-|
A|-----------------------------------------------------------------|-> Outro >-|
E|-----------------------------------------------------------------|->       >-|


[Outro]

C          G                    D
   In the morning, will you be mine?
C          G                    D
   In the morning, will you be mine?
C          G                    D
   In the morning, will you be mine?
           C            G                   D
   In the morning, the morning will you be mine?

C             
Submit corrections


        In The Morning  lessons Hard to play? Try these video lessons and learn fast In The Morning  lessons
        
↑ Back to top | Tablatures and chords for acoustic guitar and electric guitar, ukulele, drums are parodies/interpretations of the original songs. You may use it for private study, scholarship, research or language learning purposes only