» » »

Fiction Plane - Two Sisters Bass

Artists:  A B C D E F G H I J K L M N O P Q R S T U V W X Y Z # 

Two Sisters Bass

(ver. 1) Click to play this song!
Fiction Plane
 Rating:
4/5 (6 votes)
                ------------------------------------------------------------------------------
			     Two Sisters – Fiction Plane
------------------------------------------------------------------------------
Tuning:STANDARD

00:10 I’m in love with two sisters . . .
G|----9--9-9-----7-7--7-7----------------------------------------------------|
D|----------------------------7-7--7-7-----9-9--9-9-----10-10--10-10---------|
A|-/7--------5-5-------------------------------------------------------------|
E|------------------------5-5---------/7-7---------/8-8----------------------|

G|--------------9-9--9-9---------------]
D|------5-5--------------------9-9-----]
A|----------7-7-------------9-9---9-9--]-:REPEAT 3X
E|-3-3-------------------7-7-----------]

00:40 THEY SHARPEN KNIVES
G|----------------------------------------------------------]
D|---5-5-5-5---9-9--9-9---7-7-7-7-----7-----11--------------]
A|----------------------------------------------------------]4x
E|-3---------7----------5----------5-----9------------------]

01:00 OH MY HEART DON’T STOP
G|---------------------5---5---6---7-----------------------------------------|
D|---------------------------------------------------------------------------|
A|-3--0--3--0--3--0--3---3---4---5-------------------------------------------|
E|---------------------------------------------------------------------------|

Here are all the pieces.

This song gives you a great chance to work on your right hand technique. It’s fun that
Use you thumb and your index and middle fingers all at the same time. The part at the end
the chorus is fun to play using your thumb as a pick. Victor Wooten does it all the 
Hit the string on the way down and back up with your thumb, why waste the motion?

Great bass line here from the Son of Sting.

| /  slide up
| \  slide down
| h  hammer-on
| p  pull-off
| ~  vibrato
| +  harmonic
| x  Mute note
===============================================================================
            
Submit corrections

↑ Back to top | Tablatures and chords for acoustic guitar and electric guitar, ukulele, drums are parodies/interpretations of the original songs. You may use it for private study, scholarship, research or language learning purposes only