» » »

Fergie - La Love La La Tabs

Artists:  A B C D E F G H I J K L M N O P Q R S T U V W X Y Z # 

La Love La La Tabs

(ver. 1) Click to play this song!
Fergie
 Rating:
2.8/5 (29 votes)

 La Love La La  lessons Tabs too difficult? Try these video lessons and learn fast
 
                Tuning: STANDARD, NO CAPO

INTRO
   E5      C/E       D/E
e|-----------------------|
B|-----------------------|
G|-----------------------|  (x2)
D|-2-----2-2---------0---| 
A|-2-----2-3---------5---|
E|-0-----0-0---------0---|


VERSE (Uh, tell 'em where I'm from..)
   E5 C/E 
e|---------|
B|---------|
G|---------| (x15 and abruptly cut the 16th time)
D|-2-2-2---|
A|-x-2-3---|
E|-0-0-0---|


CHORUS (L.A. got the people saying la la la la la...)
  E5      C/E        D/E
e|-----------------------|
B|-----------------------|
G|-----------------------| (x4)
D|-2-----2-2----2--2-0---|
A|-2-----2-3----3--3-5---|
E|-0-----0-0----0--0-0---|


CHORUS PT2 (Every city, every state, every country you know...)
   E5 C/E 
e|---------|
B|---------|
G|---------| (x4)
D|-2-2-2---|
A|-x-2-3---|
E|-0-0-0---|


VERSE #2 (Uh, tell 'em where I'm at..)
   E5 C/E 
e|---------|
B|---------|
G|---------| (x15 and abruptly cut the 16th time)
D|-2-2-2---|
A|-x-2-3---|
E|-0-0-0---|


CHORUS (L.A. got the people saying la la la la la...)
  E5      C/E        D/E
e|-----------------------|
B|-----------------------|
G|-----------------------| (x4)
D|-2-----2-2----2--2-0---|
A|-2-----2-3----3--3-5---|
E|-0-----0-0----0--0-0---|


CHORUS PT2 (Every city, every state, every country you know...)
   E5 C/E 
e|---------|
B|---------|
G|---------| (x7 and cut abruptly at the 8th)
D|-2-2-2---|
A|-x-2-3---|
E|-0-0-0---|


CHORUS (L.A. got the people saying la la la la la...)
  E5      C/E        D/E
e|-----------------------|
B|-----------------------|
G|-----------------------| (x4)
D|-2-----2-2----2--2-0---|
A|-2-----2-3----3--3-5---|
E|-0-----0-0----0--0-0---|


OUTRO (You on that Cali sh*t...)
   E5     C/E       D/E
e|-----------------------|
B|-----------------------|
G|-----------------------|  (x4)
D|-2-----2-2---------0---| 
A|-2-----2-3---------5---|
E|-0-----0-0---------0---|
            
Submit corrections


        La Love La La  lessons Hard to play? Try these video lessons and learn fast La Love La La  lessons
        
↑ Back to top | Tablatures and chords for acoustic guitar and electric guitar, ukulele, drums are parodies/interpretations of the original songs. You may use it for private study, scholarship, research or language learning purposes only