Home » F » Fences »

Fences - Songs About Angels Tabs

Artists:  A B C D E F G H I J K L M N O P Q R S T U V W X Y Z # 

Songs About Angels Tabs

(ver. 1) Click to play this song!
Fences
Tuning:Standard


[0:06-0:18]

e|------------------------------|--------------|------------------------------|--------------|
B|--8-11-8-------8-11-8---------|----------8b--|--8-11-8-------8-11-8---------|----------8b--|
G|---------10-8---------10-8----|-----8-10-----|---------10-8---------10-8----|-----8-10-----|
D|------------------------------|--10----------|------------------------------|--10----------|
A|------------------------------|--------------|------------------------------|--------------|
E|------------------------------|--------------|------------------------------|--------------|


[0:44-0:56]

e|---------------------------------------------------|---------------------------------------|
B|---------------------------------------------------|---------------------------------------|
G|-----10----10----10----10----10----10----10----10--|-----8----8----8----8---7---7---7---7--| (Play x2)
D|--13----13----13----13----13----13----13----13-----|--10---10---10---10---8---8---8---8----|
A|---------------------------------------------------|---------------------------------------|
E|---------------------------------------------------|---------------------------------------|


[0:57-1:03]

e|------------------------------|--------------|
B|--8-11-8-------8-11-8---------|----------8b--|
G|---------10-8---------10-8----|-----8-10-----|
D|------------------------------|--10----------|
A|------------------------------|--------------|
E|------------------------------|--------------|


[1:29-1:41]

e|---------------------------------------------------|---------------------------------------|
B|---------------------------------------------------|---------------------------------------|
G|-----10----10----10----10----10----10----10----10--|-----8----8----8----8---7---7---7---7--| (Play x2)
D|--13----13----13----13----13----13----13----13-----|--10---10---10---10---8---8---8---8----|
A|---------------------------------------------------|---------------------------------------|
E|---------------------------------------------------|---------------------------------------|


[1:42-1:48]

e|------------------------------|--------------|
B|--8-11-8-------8-11-8---------|----------8b--|
G|---------10-8---------10-8----|-----8-10-----|
D|------------------------------|--10----------|
A|------------------------------|--------------|
E|------------------------------|--------------|


[2:01-2:20]

e|---------------------------------------------------|---------------------------------------|
B|---------------------------------------------------|---------------------------------------|
G|-----10----10----10----10----10----10----10----10--|-----8----8----8----8---7---7---7---7--| (Play x3)
D|--13----13----13----13----13----13----13----13-----|--10---10---10---10---8---8---8---8----|
A|---------------------------------------------------|---------------------------------------|
E|---------------------------------------------------|---------------------------------------|


[2:21-2:45]

e|------------------------------|--------------|------------------------------|--------------|
B|--8-11-8-------8-11-8---------|----------8b--|--8-11-8-------8-11-8---------|----------8b--|
G|---------10-8---------10-8----|-----8-10-----|---------10-8---------10-8----|-----8-10-----| (Play x2)
D|------------------------------|--10----------|------------------------------|--10----------|
A|------------------------------|--------------|------------------------------|--------------|
E|------------------------------|--------------|------------------------------|--------------|


[2:46-2:58]

e|---------------------------------------------------|---------------------------------------|
B|---------------------------------------------------|---------------------------------------|
G|-----10----10----10----10----10----10----10----10--|-----8----8----8----8---7---7---7---7--| (Play x2)
D|--13----13----13----13----13----13----13----13-----|--10---10---10---10---8---8---8---8----|
A|---------------------------------------------------|---------------------------------------|
E|---------------------------------------------------|---------------------------------------|            
Submit corrections

↑ Back to top | Tablatures and chords for acoustic guitar and electric guitar, ukulele, drums are parodies/interpretations of the original songs. You may use it for private study, scholarship, research or language learning purposes only