» » »

Fences - Market Place Tabs

Artists:  A B C D E F G H I J K L M N O P Q R S T U V W X Y Z # 

Market Place Tabs

(ver. 1) Click to play this song!
Fences
 Rating:
4.2/5 (5 votes)


 Market Place lessons Tabs too difficult? Try these video lessons and learn fast
 
                This is the tab for Marketplace by the one and only Fences. 

If you're a fan of Fences check out the Tab for From Roses I did here: 

-------------------------------------------------------------

Standard Tuning. 
EADGBe

Easy strumming pattern. 

VERSE

'In this life I lead...'

e|---0--0--0--0--0--0--0------------------------|
B|---1--1--1--1--1--1--1------------------------|
G|---0--0--0--0--0--2--0------------------------|
D|---0--2--0--2--0--2--2------------------------|   
A|---2--3--2--3--2--0--3------------------------|
E|---3--3--3--3--3-----x------------------------|

CHORUS 

'Pray to God the tides are low...'

             x2           x2
e|---0--0--0--0---0--0--0--0-----------------------|
B|---1--1--1--1---1--1--1--1-----------------------|
G|---0--0--2--0---0--0--2--0-----------------------|
D|---2--0--2--2---2--0--2--2-----------------------|   
A|---3--2--0--3---3--2--0--3-----------------------|
E|---x--3-----x---x--3-----x-----------------------|


Repeated VERSE and CHORUS. 

Tab R. Dean. 2011. 

-----
Marketplace. 
            
Submit corrections



        Market Place lessons Hard to play? Try these video lessons and learn fast Market Place lessons
        
↑ Back to top | Tablatures and chords for acoustic guitar and electric guitar, ukulele, drums are parodies/interpretations of the original songs. You may use it for private study, scholarship, research or language learning purposes only