Home » F » Felt »

Felt - The Optimist And The Poet Tabs

Artists:  A B C D E F G H I J K L M N O P Q R S T U V W X Y Z # 

The Optimist And The Poet Tabs

(ver. 1) Click to play this song!
Felt
Tuning: Standard

Guitars: Lawrence


PART I:
Guitar I
e|------------------------------------------------------------------------------------------------||
B|------------------------------------------------------------------------------------------------||
G|-------------------------------------------------------2-----2-----------2-----2-----------2----|| x 4
D|-------2-----2-----------2-----2-----------2-----2-----------------2-----------------2----------||
A|-2-----------------2-----------------2----------------------------------------------------------||
E|------------------------------------------------------------------------------------------------||
+
e|------------------------------------------------------------------------------------------------|
B|------------------------------------------------------------------------------------------------|
G|-------------------------------------------------------2-----2-----------2-----2-----------0----|
D|-------2-----2-----------2-----2-----------2-----2-----------------2-----------------2----------|
A|-2-----------------2-----------------2----------------------------------------------------------|
E|------------------------------------------------------------------------------------------------|
+
e|-------5-----5-----5-----5-----5-----5-----5-----5-----3-----3-----2-----2----------------------|
B|-------------------------------------------------------------------------------3-----3-----0----|
G|------------------------------------------------------------------------------------------------|
D|------------------------------------------------------------------------------------------------|
A|------------------------------------------------------------------------------------------------|
E|------------------------------------------------------------------------------------------------|
+
e|-0----------------------------------------------------------------------------------------------|
B|-0-----------------------------0-----0-h3--5-----5-----------------------------0-----0-h3--5----|
G|-2----------------------------------------------------------------------------------------------|
D|-2----------------------------------------------------------------------------------------------|
A|-0----------------------------------------------------------------------------------------------|
E|------------------------------------------------------------------------------------------------|
+
e|-3-----2----------------------------------------------------------------------------------------|
B|-------------3-----------------0-----0-h3--5-----5-----------------------------0-----0-h3--5----|
G|------------------------------------------------------------------------------------------------|
D|------------------------------------------------------------------------------------------------|
A|------------------------------------------------------------------------------------------------|
E|------------------------------------------------------------------------------------------------|
+
e|-3-----2-----------------0----------------------------------------------------------------------|
B|-------------3-----0-----0----------------------------------------------------------------------|
G|-------------------------2----------------------------------------------------------------------|
D|-------------------------2----------------------------------------------------------------------|
A|-------------------------0----------------------------------------------------------------------|
E|------------------------------------------------------------------------------------------------|
+
e|-------------------------------0----------------------------------------------------------------|
B|-------------------------0-----------0-----------0-----------------------------------0----------|
G|-------------------------2-----------------2-----------2-----------2-----------2-----------2----|
D|-------------------------2-----------------------------------2-----------2----------------------|
A|-------------------------0----------------------------------------------------------------------|
E|------------------------------------------------------------------------------------------------|
+
e|-0-----------------0-----------0----------------------------------------------------------------||
B|-------0-----------------0-----------0-----------0-----------------------------------0----------||
G|-------------2-----------2-----------------2-----------2-----------2-----------2-----------2----|| x 2
D|-------------------------2-----------------------------------2-----------2----------------------||
A|-------------------------0----------------------------------------------------------------------||
E|------------------------------------------------------------------------------------------------||
+
e|-0-----------------0-----------5-----------------3-----------------2-----------------2----------|
B|-------0-----------------0-----------0-----------------0-----------------0-----------------3----|
G|-------------2-----------0-----------------0-----------------0-----------------0----------------|
D|-------------------------0----------------------------------------------------------------------|
A|-------------------------x----------------------------------------------------------------------|
E|------------------------------------------------------------------------------------------------|
+
e|-------2-----------------------5-----------------3-----------------2-----------------2----------|
B|-------------3-----------0-----------0-----------------0-----------------0-----------------3----|
G|-0-----------------0-----0-----------------0-----------------0-----------------0----------------|
D|-------------------------0----------------------------------------------------------------------|
A|-------------------------x----------------------------------------------------------------------|
E|------------------------------------------------------------------------------------------------|
+
e|-------2-----------------------0----------------------------------------------------------------|
B|-------------3-----------0-----------0-----------0-----------------------------------0----------|
G|-0-----------------0-----2-----------------2-----------2-----------2-----------2-----------2----|
D|-------------------------2-----------------------------------2-----------2----------------------|
A|-------------------------0----------------------------------------------------------------------|
E|------------------------------------------------------------------------------------------------|
+
e|-0-----------------0-----------0----------------------------------------------------------------|
B|-------0-----------------0-----------0-----------0-----------------------------------0----------|
G|-------------2-----------2-----------------2-----------2-----------2-----------2-----------2----|
D|-------------------------2-----------------------------------2-----------2----------------------|
A|-------------------------0----------------------------------------------------------------------|
E|------------------------------------------------------------------------------------------------|
+
e|-0-----------------0-----------5-----------------3-----------------2-----------------2----------|
B|-------0-----------------0-----------0-----------------0-----------------0-----------------3----|
G|-------------2-----------0-----------------0-----------------0-----------------0----------------|
D|-------------------------0----------------------------------------------------------------------|
A|-------------------------x----------------------------------------------------------------------|
E|------------------------------------------------------------------------------------------------|
+
e|-------2-----------------------5-----------------3-----------------2-----------------2----------||
B|-------------3-----------0-----------0-----------------0-----------------0-----------------3----||
G|-0-----------------0-----0-----------------0-----------------0-----------------0----------------|| x 2
D|-------------------------0----------------------------------------------------------------------||
A|-------------------------x----------------------------------------------------------------------||
E|------------------------------------------------------------------------------------------------||
+
e|-------2-----------------0----------------------------------------------------------------------|
B|-------------3-----------0----------------------------------------------------------------------|
G|-0-----------------0-----2----------------------------------------------------------------------|
D|-------------------------2----------------------------------------------------------------------|
A|-------------------------0----------------------------------------------------------------------|
E|------------------------------------------------------------------------------------------------|
+
e|-------------------------12+---------------------12----------------------10----9-----------10---|
B|-------------------------12+--------------------------------------------------------------------|
G|-------------------------12+--------------------------------------------------------------------|
D|-------------------------12+--------------------------------------------------------------------|
A|------------------------------------------------------------------------------------------------|
E|------------------------------------------------------------------------------------------------|
+
e|-------9-----------------------------------------12+---------------------3-----2-----------3----|
B|-------------10----------10----------------------12+--------------------------------------------|
G|-------------------------------------------------12+--------------------------------------------|
D|-------------------------------------------------12+--------------------------------------------|
A|------------------------------------------------------------------------------------------------|
E|------------------------------------------------------------------------------------------------|
+
e|-------5-----3-----------12+---------------------12----------------------10----9-----------10---|
B|-------------------------12+--------------------------------------------------------------------|
G|-------------------------12+--------------------------------------------------------------------|
D|-------------------------12+--------------------------------------------------------------------|
A|------------------------------------------------------------------------------------------------|
E|------------------------------------------------------------------------------------------------|
+
e|-------9-----------------------------------------12+---------------------3-----2-----------3----|
B|-------------10----------10----------------------12+--------------------------------------------|
G|-------------------------------------------------12+--------------------------------------------|
D|-------------------------------------------------12+--------------------------------------------|
A|------------------------------------------------------------------------------------------------|
E|------------------------------------------------------------------------------------------------|
+
e|-------2-----------------0-----------0-----------------------------5-----------3-----2-----3----||
B|-------------3-----0-----0-----------------------0-----------------0----------------------------||
G|-------------------------2-----------------------------------2-----0----------------------------|| x 2
D|-------------------------2-----------------------------------------0----------------------------||
A|-------------------------0----------------------------------------------------------------------||
E|------------------------------------------------------------------------------------------------||
+
e|-------2-----------------0-----------0-----------------------------5-----------3-----2-----3----|
B|-------------3-----------0-----------------------0-----------------0----------------------------|
G|-------------------------2-----------------------------------2-----0----------------------------|
D|-------------------------2-----------------------------------------0----------------------------|
A|-------------------------0----------------------------------------------------------------------|
E|------------------------------------------------------------------------------------------------|
+
e|-------2-----------------0-----------0-----------------------------5-----------3-----2-----3----|
B|-------------3-----------0-----------------------0-----------------0----------------------------|
G|-------------------0-----2-----------------------------------2-----0----------------------------|
D|-------------------------2-----------------------------------------0----------------------------|
A|-------------------------0----------------------------------------------------------------------|
E|------------------------------------------------------------------------------------------------|
+
e|-------2-----------------0-----0-----0-----0-----0-----0-----0-----0-----0-----0-----0-----0----|
B|-------------3-----------0-----0-----0-----0-----0-----0-----0-----0-----0-----0-----0-----0----|
G|-------------------------2-----2-----2-----2-----2-----2-----2-----2-----2-----2-----2-----2----|
D|-------------------------2-----2-----2-----2-----2-----2-----2-----2-----2-----2-----2-----2----|
A|-------------------------0-----0-----0-----0-----0-----0-----0-----0-----0-----0-----0-----0----|
E|------------------------------------------------------------------------------------------------|
+
e|-0-----0-----0-----0-----0-----------0-----------0-----0-----------0-----------0-----0----------|
B|-0-----0-----0-----0-----3-----------3-----------3-----3-----0-----2-----------2-----2----------|
G|-2-----2-----2-----2-----0-----------0-----------0-----0-----0-----2-----------2-----2----------|
D|-2-----2-----2-----2-----2-----------2-----------2-----2-----0-----2-----------2-----2----------|
A|-0-----0-----0-----0-----0-----------0-----------0-----0-----------0-----------0-----0----------|
E|------------------------------------------------------------------------------------------------|
+
e|-0-----0-----0-----------0-----------0-----------0-----0-----------0-----------0-----0----------|
B|-2-----2-----2-----0-----3-----------3-----------3-----3-----0-----2-----------2-----2----------|
G|-2-----2-----2-----0-----0-----------0-----------0-----0-----0-----2-----------2-----2----------|
D|-2-----2-----2-----0-----2-----------2-----------2-----2-----0-----2-----------2-----2----------|
A|-0-----0-----0-----------0-----------0-----------0-----0-----------0-----------0-----0----------|
E|------------------------------------------------------------------------------------------------|
+
e|-0-----0-----0-----------3-----------3-----------3-----3-----3/----5-----------5-----5----------|
B|-2-----2-----2-----0-----3-----------3-----------3-----3-----3/----5-----------5-----5----------|
G|-2-----2-----2-----0-----4-----------4-----------4-----4-----4/----6-----------6-----6----------|
D|-2-----2-----2-----0-----5-----------5-----------5-----5-----5/----7-----------7-----7----------|
A|-0-----0-----0-----------5-----------5-----------5-----5-----5/----7-----------7-----7----------|
E|------------------------------------------------------------------------------------------------|
+
e|-5-----5-----5-----5-----3-----------3-----------3-----3-----------0-----------0-----0----------|
B|-5-----5-----5-----5-----3-----------3-----------3-----3-----0-----5-----------5-----5----------|
G|-6-----6-----6-----6-----4-----------4-----------4-----4-----0-----6-----------6-----6----------|
D|-7-----7-----7-----7-----5-----------5-----------5-----5-----0-----7-----------7-----7----------|
A|-7-----7-----7-----7-----5-----------5-----------5-----5-----------0-----------0-----0----------|
E|------------------------------------------------------------------------------------------------|
+
e|-0-----0-----0-----------0-----0-----0-----0-----0-----0-----0-----0-----0-----0-----0-----0----|
B|-5-----5-----5-----0-----0-----0-----0-----0-----0-----0-----0-----0-----0-----0-----0-----0----|
G|-6-----6-----6-----0-----0-----0-----0-----0-----0-----0-----0-----0-----0-----0-----0-----0----|
D|-7-----7-----7-----0-----2-----2-----2-----2-----2-----2-----2-----2-----2-----2-----2-----2----|
A|-0-----0-----0-----------2-----2-----2-----2-----2-----2-----2-----2-----2-----2-----2-----2----|
E|-------------------------0-----0-----0-----0-----0-----0-----0-----0-----0-----0-----0-----0----|
+
e|-0-----0-----0-----0-----0-----0-----0-----0-----0-----0-----0-----0-----0-----0-----0-----0----|
B|-0-----0-----0-----0-----0-----0-----0-----0-----0-----0-----0-----0-----0-----0-----0-----0----|
G|-0-----0-----0-----0-----0-----0-----0-----0-----0-----0-----0-----0-----0-----0-----0-----0----|
D|-2-----2-----2-----2-----2-----2-----2-----2-----2-----2-----2-----2-----2-----2-----2-----2----|
A|-2-----2-----2-----2-----2-----2-----2-----2-----2-----2-----2-----2-----2-----2-----2-----2----|
E|-0-----0-----0-----0-----0-----0-----0-----0-----0-----0-----0-----0-----0-----0-----0-----0----|
+
e|-0-----0-----0-----0-----2-----------2-----------------------------------------------0----------|
B|-0-----0-----0-----0-----3-----------------------3-----------------0-----------0----------------|
G|-0-----0-----0-----0-----2-----------------------------------2-----0-----------0----------------|
D|-2-----2-----2-----2-----0-----------------------------------------2-----------2----------------|
A|-2-----2-----2-----2-----------------------------------------------2-----------2----------------|
E|-0-----0-----0-----0-----------------------------------------------0----------------------------|
+
e|-------------------------2-----------2-----------------------------------------------0----------||
B|-0-----------------------3-----------------------3-----------------0-----------0----------------||
G|-------------0-----------2-----------------------------------2-----0-----------0----------------|| x 2
D|-------------------------0-----------------------------------------2-----------2----------------||
A|-------------------------------------------------------------------2-----------2----------------||
E|-------------------------------------------------------------------0----------------------------||
+
e|-------------------------3-----------3-----------------------3-----------------------3----------|
B|-0-----------------------3-----------------0-----------------------0-----------------------0----|
G|-------------0-----------0-----------------------------0-----------------------0----------------|
D|-------------------------0----------------------------------------------------------------------|
A|-------------------------x----------------------------------------------------------------------|
E|-------------------------3----------------------------------------------------------------------|
+
e|-------------3-----------2-----------2-----------------------------------------------0----------|
B|-------------------0-----3-----------------------3-----------------0-----------0----------------|
G|-------0-----------------2-----------------------------------2-----0-----------0----------------|
D|-------------------------0-----------------------------------------2-----------2----------------|
A|-------------------------------------------------------------------2-----------2----------------|
E|-------------------------------------------------------------------0----------------------------|
+
e|-------------------------2-----------2-----------------------------------------------0----------||
B|-0-----------------------3-----------------------3-----------------0-----------0----------------||
G|-------------0-----------2-----------------------------------2-----0-----------0----------------|| x 2
D|-------------------------0-----------------------------------------2-----------2----------------||
A|-------------------------------------------------------------------2-----------2----------------||
E|-------------------------------------------------------------------0----------------------------||
+
e|-------------------------3-----------3-----------------------3-----------------------3----------|
B|-0-----------------------3-----------------0-----------------------0-----------------------0----|
G|-------------0-----------0-----------------------------0-----------------------0----------------|
D|-------------------------0----------------------------------------------------------------------|
A|-------------------------x----------------------------------------------------------------------|
E|-------------------------3----------------------------------------------------------------------|
+
e|-------------3-----------2-----2-----2-----0-----------2-----------0-----7-----7-----7-----5----|
B|-------------------0----------------------------------------------------------------------------|
G|-------0----------------------------------------------------------------------------------------|
D|------------------------------------------------------------------------------------------------|
A|------------------------------------------------------------------------------------------------|
E|------------------------------------------------------------------------------------------------|
+
e|-------7-----------0-----2-----2-----2-----0-----------2-----------0-----5-----5-----5-----3----|
B|------------------------------------------------------------------------------------------------|
G|------------------------------------------------------------------------------------------------|
D|------------------------------------------------------------------------------------------------|
A|------------------------------------------------------------------------------------------------|
E|------------------------------------------------------------------------------------------------|
+
e|-------2-----------0-----2-----2-----2-----0-----------2-----------0-----7-----7-----7-----5----|
B|------------------------------------------------------------------------------------------------|
G|------------------------------------------------------------------------------------------------|
D|------------------------------------------------------------------------------------------------|
A|------------------------------------------------------------------------------------------------|
E|------------------------------------------------------------------------------------------------|
+
e|-------7-----------7-----5-----5-----5-----3-----------5-----------5-----3-----3-----3-----2----|
B|------------------------------------------------------------------------------------------------|
G|------------------------------------------------------------------------------------------------|
D|------------------------------------------------------------------------------------------------|
A|------------------------------------------------------------------------------------------------|
E|------------------------------------------------------------------------------------------------|
+
e|-------------------------0-----------0-----------0-----0-----0-----2-----------2-----2----------|
B|-------3-----------3-----3-----------3-----------3-----3-----3-----3-----------3-----3----------|
G|-------------------------2-----------2-----------2-----2-----2-----2-----------2-----2----------|
D|-------------------------0-----------0-----------0-----0-----0-----0-----------0-----0----------|
A|------------------------------------------------------------------------------------------------|
E|------------------------------------------------------------------------------------------------|
+
e|-2-----2-----2-----0-----0-----------0-----------0-----0-----0-----2-----------2-----2----------|
B|-3-----3-----3-----0-----3-----------3-----------3-----3-----3-----3-----------3-----3----------|
G|-2-----2-----2-----0-----2-----------2-----------2-----2-----2-----2-----------2-----2----------|
D|-0-----0-----0-----0-----0-----------0-----------0-----0-----0-----0-----------0-----0----------|
A|------------------------------------------------------------------------------------------------|
E|------------------------------------------------------------------------------------------------|
+
e|-2-----2-----2-----0-----0-----------0-----------0-----0-----------0-----------0-----0----------|
B|-3-----3-----3-----0-----3-----------3-----------3-----3-----0-----2-----------2-----2----------|
G|-2-----2-----2-----0-----0-----------0-----------0-----0-----0-----2-----------2-----2----------|
D|-0-----0-----0-----0-----2-----------2-----------2-----2-----0-----2-----------2-----2----------|
A|-------------------------0-----------0-----------0-----0-----------0-----------0-----0----------|
E|------------------------------------------------------------------------------------------------|
+
e|-0-----0-----0-----------3-----------3-----------3-----3-----3-----3-----------3-----3----------|
B|-2-----2-----2-----0-----3-----------3-----------3-----3-----3-----3-----------3-----3----------|
G|-2-----2-----2-----0-----0-----------0-----------0-----0-----0-----0-----------0-----0----------|
D|-2-----2-----2-----0-----0-----------0-----------0-----0-----0-----0-----------0-----0----------|
A|-0-----0-----0-----------x-----------x-----------x-----x-----x-----x-----------x-----x----------|
E|-------------------------3-----------3-----------3-----3-----3-----3-----------3-----3----------|
+
e|-3-----3-----3-----------2-----------2-----------------------------------------------0----------|
B|-3-----3-----3-----0-----3-----------------------3-----------------0-----------0----------------|
G|-0-----0-----0-----0-----2-----------------------------------2-----0-----------0----------------|
D|-0-----0-----0-----0-----0-----------------------------------------2-----------2----------------|
A|-x-----x-----x-----------------------------------------------------2-----------2----------------|
E|-3-----3-----3-----------------------------------------------------0----------------------------|
+
e|-------------------------2-----------2-----------------------------------------------0----------||
B|-0-----------------------3-----------------------3-----------------0-----------0----------------||
G|-------------0-----------2-----------------------------------2-----0-----------0----------------|| x 2
D|-------------------------0-----------------------------------------2-----------2----------------||
A|-------------------------------------------------------------------2-----------2----------------||
E|-------------------------------------------------------------------0----------------------------||
+
e|-------------------------3-----------3-----------------------3-----------------------3----------|
B|-0-----------------------3-----------------0-----------------------0-----------------------0----|
G|-------------0-----------0-----------------------------0-----------------------0----------------|
D|-------------------------0----------------------------------------------------------------------|
A|-------------------------x----------------------------------------------------------------------|
E|-------------------------3----------------------------------------------------------------------|
+
e|-------------3-----------2-----3-----2-----0-----------2-----------0-----1-----3-----1-----0----|
B|-------------------0-----3-----------------------------------------------1----------------------|
G|-------0-----------------2-----------------------------------------------2----------------------|
D|-------------------------0-----------------------------------------------3----------------------|
A|------------------------------------------------------------------------------------------------|
E|------------------------------------------------------------------------------------------------|
+
e|-------1-----------0-----2-----3-----2-----0-----------2-----------0-----1-----3-----1-----0----||
B|-------------------------3-----------------------------------------------1----------------------||
G|-------------------------2-----------------------------------------------2----------------------|| x 2
D|-------------------------0-----------------------------------------------3----------------------||
A|------------------------------------------------------------------------------------------------||
E|------------------------------------------------------------------------------------------------||
+
e|-------------------------1-----3-----1-----0----------------------------------------------------|
B|-------1-----------------1-----------------------------1----------------------------------------|
G|-------------------------2----------------------------------------------------------------------|
D|-------------------------3----------------------------------------------------------------------|
A|------------------------------------------------------------------------------------------------|
E|------------------------------------------------------------------------------------------------|



PART II:
Guitar I
e|-0-----0-----------------0-----------------0-----------------0-----------------0----------------|
B|-0-----------0-----------------0-----------------0-----------------0-----------------0----------|
G|-2-----------------2-----------------2-----------------2-----------------2-----------------2----|
D|-2----------------------------------------------------------------------------------------------|
A|-0----------------------------------------------------------------------------------------------|
E|------------------------------------------------------------------------------------------------|
+
e|-7-----7-----------------7-----------------7-----------------7-----------------7----------------|
B|-0-----------0-----------------0-----------------0-----------------0-----------------0----------|
G|-0-----------------0-----------------0-----------------0-----------------0-----------------0----|
D|-0----------------------------------------------------------------------------------------------|
A|------------------------------------------------------------------------------------------------|
E|------------------------------------------------------------------------------------------------|
+
e|-0-----0-----------------0-----------------0-----------------0-----------------0----------------|
B|-0-----------0-----------------0-----------------0-----------------0-----------------0----------|
G|-2-----------------2-----------------2-----------------2-----------------2-----------------2----|
D|-2----------------------------------------------------------------------------------------------|
A|-0----------------------------------------------------------------------------------------------|
E|------------------------------------------------------------------------------------------------|
+
e|-7-----7-----------------7-----------------7-----------------7-----------------7----------------|
B|-0-----------0-----------------0-----------------0-----------------0-----------------0----------|
G|-0-----------------0-----------------0-----------------0-----------------0-----------------0----|
D|-0----------------------------------------------------------------------------------------------|
A|------------------------------------------------------------------------------------------------|
E|------------------------------------------------------------------------------------------------|
+
e|-0-----0-----------------0-----------------0-----------------0-----------------0----------------|
B|-0-----------0-----------------0-----------------0-----------------0-----------------0----------|
G|-2-----------------2-----------------2-----------------2-----------------2-----------------2----|
D|-2----------------------------------------------------------------------------------------------|
A|-0----------------------------------------------------------------------------------------------|
E|------------------------------------------------------------------------------------------------|
+
e|-7-----7-----------------7-----------------7-----------------7-----------------7----------------|
B|-0-----------0-----------------0-----------------0-----------------0-----------------0----------|
G|-0-----------------0-----------------0-----------------0-----------------0-----------------0----|
D|-0----------------------------------------------------------------------------------------------|
A|------------------------------------------------------------------------------------------------|
E|------------------------------------------------------------------------------------------------|
+
e|-0-----0-----------------0-----------------0-----------------0-----------------0----------------|
B|-0-----------0-----------------0-----------------0-----------------0-----------------0----------|
G|-2-----------------2-----------------2-----------------2-----------------2-----------------2----|
D|-2----------------------------------------------------------------------------------------------|
A|-0----------------------------------------------------------------------------------------------|
E|------------------------------------------------------------------------------------------------|
+
e|-7-----7-----------5-----------------3-----------5-----------------3-----------------2----------|
B|-0-----------------------0-----------------------------0-----------------0----------------------|
G|-0-----------0-----------------0-----------0-----------------0-----------------0-----------0----|
D|-0----------------------------------------------------------------------------------------------|
A|------------------------------------------------------------------------------------------------|
E|------------------------------------------------------------------------------------------------|
+
e|-0-----------0-----------3-----0-----------2-----------0-----------------------0-----2----------|
B|-0-----------------0-----------------0-----------------------0-----3----------------------------|
G|-0----------------------------------------------------------------------------------------------|
D|-2----------------------------------------------------------------------------------------------|
A|------------------------------------------------------------------------------------------------|
E|------------------------------------------------------------------------------------------------|
+
e|-0-----------0-----------0-----------0-----------3-----0-----------2-----------0----------------|
B|-------------------0-----0-----------------0-----------------0-----------------------0-----3----|
G|-------------------------0----------------------------------------------------------------------|
D|-------------------------2----------------------------------------------------------------------|
A|------------------------------------------------------------------------------------------------|
E|------------------------------------------------------------------------------------------------|
+
e|-------0-----2-----------0-----------0-----------2-----------2-----------5-----3-----2-----3----|
B|-------------------------------------------0-----3-----------------------0----------------------|
G|-------------------------------------------------2----------------------------------------------|
D|-------------------------------------------------0----------------------------------------------|
A|------------------------------------------------------------------------------------------------|
E|------------------------------------------------------------------------------------------------|
+
e|-------2-----------------2-----------2-----------5-----3-----2-----3-----------2----------------|
B|-------------3-----0-----3-----------------------0-----------------------------------3----------|
G|-------------------------2-----------------------------------------------------------------0----|
D|-------------------------0----------------------------------------------------------------------|
A|------------------------------------------------------------------------------------------------|
E|------------------------------------------------------------------------------------------------|
+
e|-0-----0-----------------0-----------------0-----------------0-----------------0----------------|
B|-0-----------0-----------------0-----------------0-----------------0----------------------------|
G|-2-----------------2-----------------2-----------------2-----------------2-----------------0----|
D|-2-----------------------------------------------------------------------------------0-h2-------|
A|-0----------------------------------------------------------------------------------------------|
E|------------------------------------------------------------------------------------------------|
+
e|-0-----------0-----------------0-----------------0-----------------0----------------------------|
B|-0-----------------0-----------------0-----------------0-----------------0----------------------|
G|-2-----------------------2-----------------2-----------------2-----------------2-----------0----|
D|-2-----------------------------------------------------------------------------------0-h2-------|
A|-0----------------------------------------------------------------------------------------------|
E|------------------------------------------------------------------------------------------------|
+
e|-0-----------0-----------------0-----------------0-----------0-----0----------------------------|
B|-0-----------------0-----------------0-----------------0-----------------------0----------------|
G|-2-----------------------2-----------------2-----------------------------------------------0----|
D|-2-----------------------------------------------------------------------------------0-h2-------|
A|-0----------------------------------------------------------------------------------------------|
E|------------------------------------------------------------------------------------------------|
+
e|-7+----------------------------------------------------5----------------------------------------|
B|-7+----------------------5-----7-----------8-----------------------8-----------7-----5----------|
G|-7+---------------------------------------------------------------------------------------------|
D|------------------------------------------------------------------------------------------------|
A|------------------------------------------------------------------------------------------------|
E|------------------------------------------------------------------------------------------------|
+
e|-------------------------12+---------------------------------------5-----------7-----------5----|
B|-------------------------12+---------------------7-----8----------------------------------------|
G|-------0-----------------12+--------------------------------------------------------------------|
D|-0-h2-------------------------------------------------------------------------------------------|
A|------------------------------------------------------------------------------------------------|
E|------------------------------------------------------------------------------------------------|
+
e|-------------------------0-----------------------0-----------------0-----------------0----------|
B|-------8-----7-----------0-----------------------------0-----------------0-----------------0----|
G|-------------------------2-----------------------------------2-----------------2----------------|
D|-------------------------2----------------------------------------------------------------------|
A|-------------------------0----------------------------------------------------------------------|
E|------------------------------------------------------------------------------------------------|
+
e|-------0-----------------0-----------------0-----------------0-----------------0----------------|
B|-------------0-----------------0-----------------0-----------------0-----------------0----------|
G|-2-----------------2-----------------2-----------------2-----------------2-----------------2----|
D|------------------------------------------------------------------------------------------------|
A|------------------------------------------------------------------------------------------------|
E|------------------------------------------------------------------------------------------------|
+
e|-0-----------------0-----------------0-----------------0-----------------0-----------------0----|
B|-------0-----------------0-----------------0-----------------0-----------------0----------------|
G|-------------2-----------------2-----------------2-----------------2-----------------2----------|
D|------------------------------------------------------------------------------------------------|
A|------------------------------------------------------------------------------------------------|
E|------------------------------------------------------------------------------------------------|
+
e|-------------0-----------------------------3-----0----------------------------------------------|
B|-0-----------------0-----------------1-----------------1-----------------------------1-----0-h1-|
G|-------2-----------------------2-----------------------------2-----------------2----------------|
D|-------------------------0-h2--------------------------------------2-----0-h2-------------------|
A|------------------------------------------------------------------------------------------------|
E|------------------------------------------------------------------------------------------------|
+
e|-0-----------------------------------------3-----0----------------------------------------------||
B|-------0-h1--0-----------------------1-----------------1-----------------------------1-----0-h1-||
G|-------------------------------2-----------------------------2-----------------2----------------|| x 4
D|-------------------2-----0-h2--------------------------------------2-----0-h2-------------------||
A|------------------------------------------------------------------------------------------------||
E|------------------------------------------------------------------------------------------------||



PART III:
Guitar I
e|-0-----------------------------------------3-----0----------------------------------------------|
B|-------0-----------------------------1-----------------1-----------------------------1-----0-h1-|
G|-------------------------------2-----------------------------2-----------------2----------------|
D|-------------------------0-h2--------------------------------------2-----0-h2-------------------|
A|------------------------------------------------------------------------------------------------|
E|------------------------------------------------------------------------------------------------|
+
e|-0-----------------------------------------3-----0----------------------------------------------||
B|-------0-h1--0-----------------------1-----------------1-----------------------------1-----0-h1-||
G|-------------------------------2-----------------------------2-----------------2----------------|| x 12
D|-------------------2-----0-h2--------------------------------------2-----0-h2-------------------||
A|------------------------------------------------------------------------------------------------||
E|------------------------------------------------------------------------------------------------||
+
e|-0----------------------------------------------------------------------------------------------|
B|-------0-h1--0----------------------------------------------------------------------------------|
G|-------------------------------------------------------------------------------2-----2----------|
D|-------------------2-----------2-----2-----------2-----2-----------2-----2-----------------2----|
A|-------------------------2-----------------2-----------------2----------------------------------|
E|------------------------------------------------------------------------------------------------|
+
e|------------------------------------------------------------------------------------------------||
B|------------------------------------------------------------------------------------------------||
G|-2-----2-----------2-----------------------------------------------------------2-----2----------|| x 9
D|-------------2-----------------2-----2-----------2-----2-----------2-----2-----------------2----||
A|-------------------------2-----------------2-----------------2----------------------------------||
E|------------------------------------------------------------------------------------------------||
+
e|-------------------------------5-----5-----5-----5-----5-----5-----5-----5-----3-----3-----2----|
B|-------------------------0----------------------------------------------------------------------|
G|-2-----2-----------0-----0----------------------------------------------------------------------|
D|-------------2-----------0----------------------------------------------------------------------|
A|-------------------------x----------------------------------------------------------------------|
E|------------------------------------------------------------------------------------------------|
+
e|-2---------------------------0------------------------------------------------------------------|
B|-------3-----3-----0--------0-------------------------------------------------------------------|
G|---------------------------2--------------------------------------------------------------------|
D|--------------------------2---------------------------------------------------------------------|
A|-------------------------0----------------------------------------------------------------------|
E|------------------------------------------------------------------------------------------------|



PART III:
Guitar II
e|-------------------------12---------------------------------------------------------------------|
B|-------------------------------------------------------------------------10---------------------|
G|------------------------------------------------------------------------------------------------|
D|------------------------------------------------------------------------------------------------|
A|------------------------------------------------------------------------------------------------|
E|------------------------------------------------------------------------------------------------|
+
e|-------------------------12---------------------------------------------------------------------|
B|-------------10----------------------------------------------------------10---------------------|
G|------------------------------------------------------------------------------------------------|
D|------------------------------------------------------------------------------------------------|
A|------------------------------------------------------------------------------------------------|
E|------------------------------------------------------------------------------------------------|
+
e|------------------------------------------------------------------------------------------------|
B|-------------10----------12----------------------------------12----------10---------------------|
G|------------------------------------------------------------------------------------------------|
D|------------------------------------------------------------------------------------------------|
A|------------------------------------------------------------------------------------------------|
E|------------------------------------------------------------------------------------------------|
+
e|-------------------------------------------------------------12---------------------------------|
B|-------------10----------12----------------------------------------------10---------------------|
G|------------------------------------------------------------------------------------------------|
D|------------------------------------------------------------------------------------------------|
A|------------------------------------------------------------------------------------------------|
E|------------------------------------------------------------------------------------------------|
+
e|------------------------------------------------------------------------------------------------|
B|------------------------------------------------------------------------------------------------|
G|-------------------------5-----------------------------------5----/7-----7----------------------|
D|------------------------------------------------------------------------------------------------|
A|------------------------------------------------------------------------------------------------|
E|------------------------------------------------------------------------------------------------|
+
e|------------------------------------------------------------------------------------------------|
B|-------------------------------------------------------------8-----------7----------------------|
G|-------------7----\5-----5-----------------------------------------------------------------7----|
D|------------------------------------------------------------------------------------------------|
A|------------------------------------------------------------------------------------------------|
E|------------------------------------------------------------------------------------------------|
+
e|------------------------------------------------------------------------------------------------|
B|------------------------------------------------------------------------------------------------|
G|-------------7----\5-----5-----------------------------------5----/7-----7----------------------|
D|------------------------------------------------------------------------------------------------|
A|------------------------------------------------------------------------------------------------|
E|------------------------------------------------------------------------------------------------|
+
e|------------------------------------------------------------------------------------------------|
B|------------------------------------------------------------------------------------------------|
G|-------------7----/9-----9-----------------------------------5----/7-----7----------------------|
D|------------------------------------------------------------------------------------------------|
A|------------------------------------------------------------------------------------------------|
E|------------------------------------------------------------------------------------------------|
+
e|------------------------------------------------------------------------------------------------|
B|------------------------------------------------------------------------------------------------|
G|------------------------------------------------------------------------------------------------|
D|-------------------------2-----------------------------------2----/4-----4-----------------2----|
A|------------------------------------------------------------------------------------------------|
E|------------------------------------------------------------------------------------------------|
+
e|------------------------------------------------------------------------------------------------|
B|------------------------------------------------------------------------------------------------|
G|------------------------------------------------------------------------------------------------|
D|-------------0-----------2-----------------------------------2----/4-----4-----------------2----|
A|------------------------------------------------------------------------------------------------|
E|------------------------------------------------------------------------------------------------|
+
e|------------------------------------------------------------------------------------------------|
B|------------------------------------------------------------------------------------------------|
G|-------------2----------------------------------------------------------------------------------|
D|-------------------------2-----------------------------------2----/4-----4-----------------2----|
A|------------------------------------------------------------------------------------------------|
E|------------------------------------------------------------------------------------------------|
+
e|------------------------------------------------------------------------------------------------|
B|------------------------------------------------------------------------------------------------|
G|------------------------------------------------------------------------------------------------|
D|-------------0-----------2----------------------------------------------------------------------|
A|------------------------------------------------------------------------------------------------|
E|------------------------------------------------------------------------------------------------|
+
e|------------------------------------------------------------------------------------------------||
B|------------------------------------------------------------------------------------------------||
G|------------------------------------------------------------------------------------------------|| x 12
D|------------------------------------------------------------------------------------------------||
A|------------------------------------------------------------------------------------------------||
E|------------------------------------------------------------------------------------------------||

            
Submit corrections

↑ Back to top | Tablatures and chords for acoustic guitar and electric guitar, ukulele, drums are parodies/interpretations of the original songs. You may use it for private study, scholarship, research or language learning purposes only