Home » F » Felt »

Felt - Mexican Bandits Tabs

Artists:  A B C D E F G H I J K L M N O P Q R S T U V W X Y Z # 

Mexican Bandits Tabs

(ver. 1) Click to play this song!
Felt
Tuning: Standard

Guitars: Maurice Deebank


INTRO:
Guitar I
e|------------------------------------------------||
B|------------------------------------------------||
G|-------0--------0--------------0--------0-------|| x 4
D|----0--------0--------0-----0--------0--------0-||
A|-2--------3--------2-----3--------2--------3----||
E|------------------------------------------------||



RIFF I:
Guitar I
e|------------------------------------------------||
B|------------------------------------------------||
G|-------0--------0-----0--------0--------0-----0-|| x 4
D|----0--------0--------------0--------0----------||
A|-3--------3--------3-----2--------2--------2----||
E|------------------------------------------------||
+
e|------------------------------------------------|
B|------------------------------------------------|
G|-------0--------0-----0--------0--------0-----0-|
D|----0--------0--------------0--------0----------|
A|-5--------5--------5-----3--------3--------3----|
E|------------------------------------------------|
+
e|------------------------------------------------|
B|------------------------------------------------|
G|-------0--------0-----0--------0--------0-----0-|
D|----0--------0--------------0--------0----------|
A|-2--------2--------2-----3--------3--------3----|
E|------------------------------------------------|
+
e|------------------------------------------------|
B|------------------------------------------------|
G|-------0--------0-----0--------0--------0-----0-|
D|----0--------0--------------0--------0----------|
A|-5--------5--------5-----3--------3--------3----|
E|------------------------------------------------|
+
e|------------------------------------------------|
B|------------------------------------------------|
G|-------0--------0-----0--------0--------0-----0-|
D|----0--------0--------------0--------0----------|
A|-2--------2--------2-----3--------3--------3----|
E|------------------------------------------------|



RIFF I:
Guitar II
e|------------------------------------------------||
B|------------------------------------------------||
G|-------0--------0-----0--------0--------0-----0-|| x 4
D|----0--------0--------------0--------0----------||
A|-3--------3--------3-----2--------2--------2----||
E|------------------------------------------------||
+
e|------------------------------------------------|
B|------------------------------------------------|
G|-------0--------0-----0--------0--------0-----0-|
D|----0--------0--------------0--------0----------|
A|-5--------5--------5-----3--------3--------3----|
E|------------------------------------------------|
+
e|------------------------------------------------|
B|------------------------------------------------|
G|-------0--------0-----0--------0--------0-----0-|
D|----0--------0--------------0--------0----------|
A|-2--------2--------2-----3--------3--------3----|
E|------------------------------------------------|
+
e|------------------------------------------------|
B|------------------------------------------------|
G|-------0--------0-----0--------0--------0-----0-|
D|----0--------0--------------0--------0----------|
A|-5--------5--------5-----3--------3--------3----|
E|------------------------------------------------|
+
e|------------------------------------------------|
B|------------------------------------------------|
G|-------0--------0-----0--------0--------0-----0-|
D|----0--------0--------------0--------0----------|
A|-2--------2--------2-----3--------3--------3----|
E|------------------------------------------------|



RIFF II:
Guitar I
e|------------------------------------------------||
B|------------------------------------------------||
G|-------0--------0-----0--------2--------2-----2-|| x 3
D|----2--------2--------------2--------2----------||
A|-2--------2--------2-----0--------0--------0----||
E|------------------------------------------------||
+
e|------------------------------------------------|
B|------------------------------------------------|
G|-------2--------2-----2--------2--------2-----2-|
D|----2--------2--------------2--------2----------|
A|-0--------0--------0-----0--------0--------0----|
E|------------------------------------------------|



RIFF II:
Guitar II
e|------------------------------------------------||
B|------------------------------------------------||
G|-------0--------0-----0--------2--------2-----2-|| x 3
D|----2--------2--------------2--------2----------||
A|-2--------2--------2-----0--------0--------0----||
E|------------------------------------------------||
+
e|------------------------------------------------|
B|------------------------------------------------|
G|-------2--------2-----2--------2--------2-----2-|
D|----2--------2--------------2--------2----------|
A|-0--------0--------0-----0--------0--------0----|
E|------------------------------------------------|



INTERLUDE I:
Guitar I
e|------------------------------------------------|
B|------------------------------------------------|
G|-------0--------0-----0--------0--------0-----0-|
D|----0--------0--------------0--------0----------|
A|-3--------3--------3-----2--------2--------2----|
E|------------------------------------------------|



LEAD I:
Guitar II
e|------------------------------------------------||
B|------------------------------------------------||
G|-7--------7--------7-----7--------7--------7----|| x 4
D|----7--------7--------7-----7--------7--------7-||
A|-------10-------10-------------9--------9-------||
E|------------------------------------------------||
+
e|------------------------------------------------|
B|------------------------------------------------|
G|-7--------7--------7-----7--------7--------7----|
D|----7--------7--------7-----7--------7--------7-|
A|-------10-------10-------------10-------10------|
E|------------------------------------------------|
+
e|------------------------------------------------|
B|------------------------------------------------|
G|-7--------7--------7-----7--------7--------7----|
D|----7--------7--------7-----7--------7--------7-|
A|-------9--------9--------------10-------10------|
E|------------------------------------------------|
+
e|------------------------------------------------|
B|------------------------------------------------|
G|-7--------7--------7-----7--------7--------7----|
D|----7--------7--------7-----7--------7--------7-|
A|-------10-------10-------------10-------10------|
E|------------------------------------------------|
+
e|------------------------------------------------|
B|------------------------------------------------|
G|-7--------7--------7-----7--------7--------7----|
D|----7--------7--------7-----7--------7--------7-|
A|-------9--------9--------------10-------10------|
E|------------------------------------------------|



INTERLUDE II:
Guitar I
e|------------------------------------------------||
B|------------------------------------------------||
G|-------0--------0--------------0--------0-------|| x 2
D|----0--------0--------0-----0--------0--------0-||
A|-2--------3--------2-----3--------2--------3----||
E|------------------------------------------------||



LEAD II:
Guitar II
e|-3--------3--------3-----3--------3--------3----||
B|----3--------3--------3-----3--------3--------3-||
G|-------5--------5--------------4--------4-------|| x 4
D|------------------------------------------------||
A|------------------------------------------------||
E|------------------------------------------------||
+
e|-3--------3--------3-----3--------3--------3----|
B|----3--------3--------3-----3--------3--------3-|
G|-------2--------2--------------5--------5-------|
D|------------------------------------------------|
A|------------------------------------------------|
E|------------------------------------------------|
+
e|-3--------3--------3-----3--------3--------3----|
B|----3--------3--------3-----3--------3--------3-|
G|-------4--------4--------------5--------5-------|
D|------------------------------------------------|
A|------------------------------------------------|
E|------------------------------------------------|
+
e|-3--------3--------3-----3--------3--------3----|
B|----3--------3--------3-----3--------3--------3-|
G|-------2--------2--------------5--------5-------|
D|------------------------------------------------|
A|------------------------------------------------|
E|------------------------------------------------|
+
e|-3--------3--------3-----3--------3--------3----|
B|----3--------3--------3-----3--------3--------3-|
G|-------4--------4--------------5--------5-------|
D|------------------------------------------------|
A|------------------------------------------------|
E|------------------------------------------------|



OUTRO:
Guitar I
e|------------------------------------------------||
B|------------------------------------------------||
G|-0-----------------0-----------0-----------0----|| x 4
D|----0-----------0-----------0-----------0-----0-||
A|-------5--3-----------2-----------3-------------||
E|------------------------------------------------||
+
e|------------------------------------------------||
B|------------------------------------------------||
G|-------0--------0--------------0--------0-------|| x 4
D|----0--------0--------0-----0--------0--------0-||
A|-2--------3--------2-----3--------2--------3----||
E|------------------------------------------------||



OUTRO:
Guitar II
e|------------------------------------------------||
B|------------------------------------------------||
G|-0-----------------0-----------0-----------0----|| x 4
D|----0-----------0-----------0-----------0-----0-||
A|-------5--3-----------2-----------3-------------||
E|------------------------------------------------||
+
e|------------------------------------------------||
B|------------------------------------------------||
G|------------------------------------------------|| x 4
D|------------------------------------------------||
A|------------------------------------------------||
E|------------------------------------------------||



SONG STRUCTURE:

Guitar I
INTRO
RIFF I x 2
RIFF II
INTERLUDE I
RIFF I
INTERLUDE II
RIFF I
RIFF II
INTERLUDE I
RIFF I
OUTRO

Guitar II
N/A
RIFF I x 2
RIFF II
N/A
LEAD I
N/A
RIFF I
RIFF II
N/A
LEAD II
OUTRO
            
Submit corrections

↑ Back to top | Tablatures and chords for acoustic guitar and electric guitar, ukulele, drums are parodies/interpretations of the original songs. You may use it for private study, scholarship, research or language learning purposes only