» » »

Feeling - Say No Chords

Artists:  A B C D E F G H I J K L M N O P Q R S T U V W X Y Z # 

Say No Chords

(ver. 1) Click to play this song!
Feeling
 Rating:
4.2/5 (5 votes)


 Say No lessons Tabs too difficult? Try these video lessons and learn fast
 
                The Feeling - Say No

Standard Tuning, no Capo


The Intro and the solo parts are actually for the piano, but you can also play it with 
the guitar.

Enjoy!

Piano Intro

E||--3--3--3--3--3----3--3--|--5----8----0---|--0--0--0--0--0----0--0--|--1----3-------------|
B||-------------------------|----------------|-------------------------|------------1--------|
G||-------------------------|----------------|-------------------------|---------------------|
D||-------------------------|----------------|-------------------------|---------------------|
A||-------------------------|----------------|-------------------------|---------------------|
E||-------------------------|----------------|-------------------------|---------------------|

                                                   (This part is not played in E Guitar Solo)
E||-------------------------|---------------------|--------------------0----------|
B||--1--1--1--1--1----1--1--|--3----5-------------|--1--1--1--1--1--1-----3----1--|
G||-------------------------|------------2--------|-------------------------------|
D||-------------------------|---------------------|-------------------------------|
A||-------------------------|---------------------|-------------------------------|
E||-------------------------|---------------------|-------------------------------|


C                                  C
  Even as the sun hits the morning breeze,

                                     C
Warming up the chill as it moves the trees,

                                        Am
Tell me will you come for a stroll with me,

                          C
All you ever do is say no.

C                                     C
  If I took a line from your favorite song,

                                        C
Wrote it in the sky with the stars that shone,

                               Am
I could never get you to sing along,

                         C    F
All you'd ever do is say nooooo.

    C        G        Am        F       C   
     G        C
Ooh oh, say nooo. Ooh oh, say nooo. Ooh oh, say nooo. Ooh oh

Piano Solo
(Same as Piano Intro)

C                                   C
  I dream about a world only we can know,

                               C
Dream about a car and a dog in tow,

                                   Am
Dream about the places that we can go,

                              C
But all you ever do is say no.

                                   C
I must be a fool cause I play this game,

                                C
Shakin' off the dust and I try again,

                                    Am
Tell me what I did to deserve these blows,

                         C    F
All you'd ever do is say nooooo.

    C        G        Am        F       C   
     G        Am
Ooh oh, say nooo. Ooh oh, say nooo. Ooh oh, say nooo. Ooh oh

                F                   C
I know what you do, I know what you do,

              G                    Am
You string me along, it keeps you amused

      F       C         G       C (let ring)
Say nooo. Ooh oh, say nooo. Ooh oh

E Guitar Solo
(Same as Piano Intro)

               F          C                G           Am
When I say one thing, ooh oh, and you say another, ooh oh,

           F         C               G          Am
When I say love, ooh oh, you run for cover, ooh oh.

                F                   C
I know what you do, I know what you do,

              G                   Am
You string me along, it keeps you amused

      F       C         G       Am
Say nooo. Ooh oh, say nooo. Ooh oh

You give me nothing baby,

F                 C
  I say one thing, you say another baby.

G                    Am
  I say love and you run for cover baby.

F                C
 I say one thing, you say another baby.

G                   Am
 I say love and you run for cover baby.

F                 C
 I say one thing, you say another baby.

G                      Am                     F
 I say love and you're breaking my heart baby, breaking my heart baby,

C                       G                      Am  G
Breaking my heart baby, breaking my heart baby.

      F       C         G       Am        F 
      C         G       Am
Say nooo. Ooh oh, say nooo. Ooh oh, say nooo. Ooh oh, say nooo. Ooh oh

                F                   C
I know what you do, I know what you do,

              G                   Am
You string me along, it keeps you amused

      F       C         G       C
Say nooo. Ooh oh, say nooo. Ooh oh

Piano Outro
(Same as Piano Intro)
            
Submit corrections



        Say No lessons Hard to play? Try these video lessons and learn fast Say No lessons
        
↑ Back to top | Tablatures and chords for acoustic guitar and electric guitar, ukulele, drums are parodies/interpretations of the original songs. You may use it for private study, scholarship, research or language learning purposes only