» » »

Feeder - Lost And Found Tabs

Artists:  A B C D E F G H I J K L M N O P Q R S T U V W X Y Z # 

Lost And Found Tabs

(ver. 1) Click to play this song!
Feeder
 Rating:
4/5 (4 votes)

 Lost And Found lessons Tabs too difficult? Try these video lessons and learn fast
 
                Band: Feeder

Standard tuning both guitars

intro & verses:repeat as needed
e|-----------------------------|
B|-----------------------------|
G|-444444444444444444----99----|
D|-xxxxxxxxxxxxxxxxxx-77-99-99-|
A|-444444444444444444-77-77-99-|
E|--------------------55----77-|

Pre-chorus

e|------------------------|x2 (2nd time strum the last chord only once)
B|------------------------|
G|--6666-4-9999-11111111--|
D|--6666-4-9999-11111111--|
A|--4444-2-7777-9-9-9-9---|
E|------------------------|

Chorus

e|------------------------|x3
B|------------------------|
G|--6666-4-9999-11111111--|
D|--6666-4-9999-11111111--|
A|--4444-2-7777-9-9-9-9---|
E|------------------------|

e|----------------------|
B|----------------------|
G|-999999-1111111111111-|
D|-999999-1111111111111-|
A|-777777-9-9-9-9-9-9-9-|
E|----------------------|

Repeat Verse
Repeat Pre-chorus
Repeat Chorus twice

gtr2 comes in at the 2nd time you repeat the chorus

e|-12-9--------------------------------------|
B|------12-9---------------------------------|
G|-----------11-10-9-------------------------|
D|-------------------11-10-9-----------------|
A|---------------------------11-10-9---------|
E|-----------------------------------12-9----|

Repeat Verse
Repeat Pre-Chorus
Repeat Chorus Twice (with gtr 2 as before)

Outro

e|-----------------------------------------|x2
B|-----------------------------------------|
G|--444x444x4-444x444x4-444x444x4----99----|
D|--xxxxxxxxx-xxxxxxxxx-xxxxxxxxx-77-99-99-|
A|--444x444x4-444x444x4-444x444x4-77-77-99-|
E|--------------------------------55----77-|

End on

e|----|
B|----|
G|-6-|
D|-6-|
A|-4-|
E|----|

Hope it's right!AMAZING SONG!!!

Update: the song is actually capo 4, the only thing that changes is basically the way 
play the intro/verse
        i'll post the tab for the whole song anyway

gtr1:(relative to capo)

intro&verses:repeat as needed
e|----------------------|
B|----------------------|
G|----------------55----|
D|-55555555555-33-55-55-|
A|-00000000000-33-33-55-|
E|-------------11----33-|

Pre-chorus

e|-------------------|x2 (2nd time strum the last chord only once)
B|-------------------|
G|---------7777-9999-|
D|--7777-5-7777-9999-|
A|--7777-5-5555-7777-|
E|--5555-3-----------|

Chorus

e|-------------------|x3
B|-------------------|
G|---------7777-9999-|
D|--7777-5-7777-9999-|
A|--7777-5-5555-7777-|
E|--5555-3-----------|

e|---------------|
B|---------------|
G|-777777-999999-|
D|-777777-999999-|
A|-555555-777777-|
E|---------------|

Repeat Verse
Repeat Pre-chorus
Repeat Chorus twice

gtr2(no capo!) comes in at the 2nd time you repeat the chorus

e|-12-9--------------------------------------|
B|------12-9---------------------------------|
G|-----------11-10-9-------------------------|
D|-------------------11-10-9-----------------|
A|---------------------------11-10-9---------|
E|-----------------------------------12-9----|

Repeat Verse
Repeat Pre-Chorus
Repeat Chorus Twice (with gtr 2 as before)

Outro

e|----------------------------------------|x2
B|----------------------------------------|
G|----------------------------------55----|
D|-555x555x5-555x555x5-555x555x5-33-55-55-|
A|-000000000-000000000-000000000-33-33-55-|
E|-------------------------------11----33-|


End on

e|----|
B|----|
G|----|
D|-7-|
A|-7-|
E|-5-|

Well hope this 1's good too!
            
Submit corrections


        Lost And Found lessons Hard to play? Try these video lessons and learn fast Lost And Found lessons
        
↑ Back to top | Tablatures and chords for acoustic guitar and electric guitar, ukulele, drums are parodies/interpretations of the original songs. You may use it for private study, scholarship, research or language learning purposes only